Oops, an error
Loading. Please wait.

Comadre Rosa tab

47 views 1 this week
no commentswrite comment
1 2 3 4 5
3 more votes to show rating
add to favorites
×
Save as Personal and add changes to this tab that will be seen only by you. Learn more ›
×
You can save this tab as Personal to edit and correct it or add notes. All changes will be seen only by you. Learn more »
launch autoscroll
font size
0
reset
how to read this tab
guitar tuner
edit
Autoscroll
slow
fast
+/-
esc
set tempo
stop
Hola a la canción le e hecho una pequeña adecuación,
En la original es con armónica pero yo le pase a punteado,
como el que hacen en los conciertos.......... 
 
      FA                  DO               FA                DO
1/-9-9---6-6---------------------------------------------------/ x2
2/----------------9-9---6-----6-6---9---11---9-----------------/
3/---------------------------------------------------10--------/
4/-------------------------------------------------------------/
5/-------------------------------------------------------------/
6/-------------------------------------------------------------/

       FA                  DO               FA               DO
1/----------------------6---9---6------------------------------/
2/----------------9-9---------------9--------------------------/
3/-6-6---10-10-------------------------------------------------/
4/-------------------------------------------------------------/
5/-------------------------------------------------------------/
6/-------------------------------------------------------------/

      FA                  DO               FA                DO
1/----------------------6--------------------------------------/
2/----------------9-9------6-6---------------------------------/
3/-6-6---10-10---------------8---6-----------------------------/
4/-------------------------------------------------------------/
5/-------------------------------------------------------------/
6/-------------------------------------------------------------/


FA                       DO
Comadre rosa hoy no te vi 
FA                       DO
esta mañana en el camal
FA                       DO
por que no hiciste de comerciar
FA                       DO
con los porotos y el maíz.

(DO-MI-LAm) x2            ?en LA menor se rasga tres veces?


FA                     DO
Taita marido fue a chupar 
FA                     DO
y a mis guaguas quiso pegar 
FA                     DO
de las iras me pare 
FA                     DO
y un puñete me gane 

(DO-MI-LAm) x2            ?en LA menor se rasga tres veces?

FA                     DO


FA                     DO
mi comadre tiene cinco guaguas 
FA                     DO
que por suerte aun no fundean 
FA                     DO
venden chicles en la marín 
FA                     DO
y a la alameda se saben huir-iiir

(DO-MI-LAm) x2            ?en LA menor se rasga tres veces?


FA                     DO
y si los agarra robando en la amazonas 
FA                     DO
les mete una pisa que le hace ver bolas 
FA                     DO
guambra mudo si vuelve a robar 
FA                     DO
donde los chapas  te e de mandar

(DO-MI-LAm) x2            ?en LA menor se rasga tres veces?


      FA                  DO               FA                DO
1/-9-9---6-6---------------------------------------------------/ x2
2/----------------9-9---6-----6-6---9---11---9-----------------/
3/---------------------------------------------------10--------/
4/-------------------------------------------------------------/
5/-------------------------------------------------------------/
6/-------------------------------------------------------------/

       FA                  DO               FA               DO
1/----------------------6---9---6------------------------------/
2/----------------9-9---------------9--------------------------/
3/-6-6---10-10-------------------------------------------------/
4/-------------------------------------------------------------/
5/-------------------------------------------------------------/
6/-------------------------------------------------------------/

      FA                  DO               FA                DO
1/----------------------6--------------------------------------/
2/----------------9-9------6-6---------------------------------/
3/-6-6---10-10---------------8---6-----------------------------/
4/-------------------------------------------------------------/
5/-------------------------------------------------------------/
6/-------------------------------------------------------------/

 
FA                       DO
mi comadre no sabe leer 
FA                       DO
ni tampoco escribir 
FA                       DO
pero cocina papas con librillo 
FA                       DO
que quisiera hacerme su marido

(DO-MI-LAm) x2            ?en  (LAm)  se rasga tres veces?


FA                       DO
y cuando el segundo le vuelva a pegar 
FA                       DO
a la rosita me voy a robar 
FA                       DO
y sobre la estera le dire 
FA                       DO
que por fin sea mi mujer

(DO-MI-LA) x2            ?en LA menor se rasga tres veces?


FA                       DO
y cuando le lleve para mi piesa 
FA                       DO
con los guaguas y la estera
FA                       DO
haré verdad lo que soñaba 
FA                       DO
cuando al camal yo la visitaba 

DO    LAm      x6

DO    LAm
y es mi comadre rosa 
DO    LAm
la encuentro primorosa 
DO    LAm
y espero que algún día
DO    LAm
ella sea solo MIA 
 
DO    LAm
y es mi comadre rosa 
DO    LAm
cocina como una diosa
DO    LAm
y espero que algún día
DO    LAm
me haga la comida

DO    LAm
y es mi comadre rosa 
DO    LAm
y es mi comadre rosa 
DO    LAm
y es mi comadre rosa 


Pd: gracias al acolite de wailo y xavo,
    Ya saben el ska y el punk siempre arriba CARAJO ¡    F: POGO

            
            
Suggest correction
Creating personal tab
Creating personal tab
You can edit any tab online and save it as your Personal.

You can edit, replace or remove any tab part or add personal notes – all changes will be seen only by you.

Personal tabs can be accessed anytime from any device, even offline.
Learn more »
Give kudos to tab author, rate the tab!
1 2 3 4 5
comments
print report bad tab
guest
Wanna post a correction for this tab? Suggest correction