Oops, an error
Loading. Please wait.

Fuerza Latina tab

29 views 3 this week
no commentswrite comment
1 2 3 4 5
3 more votes to show rating
add to favorites
×
Save as Personal and add changes to this tab that will be seen only by you. Learn more ›
×
You can save this tab as Personal to edit and correct it or add notes. All changes will be seen only by you. Learn more »
launch autoscroll
font size
0
reset
how to read this tab
guitar tuner
edit
Autoscroll
slow
fast
+/-
esc
set tempo
stop
Transcrito por Ricardo 
E-mail: Earth_warrior49@ 

Bueno esta canción es bien fácil 
Necesitas distorsión 

Y se dice asi 


Riff 1
|-----------------------------|
|-----------------------------|
|-----------------------------|
|---4--4--44--7--6644-3--4----|
|-----------------------------|
|-----------------------------|

Riff 2
|---------------------------------------------------------|
|---------------------------------------------------------|
|---------------6-5-4-------------------------------------|
|---4--77-66-4?(6)?(4)----4--77-66-4-2-3-4----------------|
|---------------------------------------------------------|
|---------------------------------------------------------|

|---------------------------------------------------------|
|---------------------------------------------------------|
|---------------6-5-4-------------------------------------|
|---4--77-66-4?(6)?(4)----4--77-66-4-2-3-4----------------|
|---------------------------------------------------------|
|---------------------------------------------------------|

|---------------------------------------------------------|
|---------------------------------------------------------|
|---------------6-5-4-------------------------------------|
|---4--77-66-4?(6)?(4)----4--77-66-4-2-3-4----------------|
|---------------------------------------------------------|
|---------------------------------------------------------|

|---------------------------------------------------------|
|---------------------------------------------------------|
|---------------6-5-4-------------------------------------|
|---4--77-66-4?(6)?(4)----4--77-66-4-2-3-4----------------|
|---------------------------------------------------------|
|---------------------------------------------------------|


Riff 3
|-----------------x4----|---------------x4----------------|
|-----------------------|---------------------------------|
|-----------------------|---------------------------------|
|---6--77-66-4-6--------|---7-99-77-6-7-------------------|
|-----------------------|---------------------------------|
|-----------------------|---------------------------------|
Sale volando.......       Todos esperando que......... 


|-----------------x4----|---------------x4----------------|
|-----------------------|---------------------------------|
|-----------------------|---------------------------------|
|---6--77-66-4-6--------|---7-99-77-6-7-------------------|
|-----------------------|---------------------------------|
|-----------------------|---------------------------------|
El Ave que se......       Hay animalito.........

|---------------------------------------------------------|
|---------------------------------------------------------|
|---------------6-5-4-------------------------------------|
|---4--77-66-4?(6)?(4)----4--77-66-4-2-3-4----------------|
|---------------------------------------------------------|
|---------------------------------------------------------|
                     Huhaha               Turudada        

|---------------------------------------------------------|
|---------------------------------------------------------|
|---------------6-5-4-------------------------------------|
|---4--77-66-4?(6)?(4)----4--77-66-4-2-3-4----------------|
|---------------------------------------------------------|
|---------------------------------------------------------|
                     Huhaha               Turudada        

|-----------------x4----|---------------x4----------------|
|-----------------------|---------------------------------|
|-----------------------|---------------------------------|
|-6--77-66-4-6----------|---7-99-77-6-7-------------------|
|-----------------------|---------------------------------|
|-----------------------|---------------------------------|
 La triste verduga...      El hacha que.........

|-----------------x4----|---------------x4----------------|
|-----------------------|---------------------------------|
|-----------------------|---------------------------------|
|-6--77-66-4-6----------|---7-99-77-6-7-------------------|
|-----------------------|---------------------------------|
|-----------------------|---------------------------------|
 La niña le........        Y asi la pobre.......


Riff 4
|---------------------------------------------------------|
|---------------------------------------------------------|
|--11--77--------11-77------------------------------------|
|--11--77-8-7----11-77-8-7--------------------------------|
|--9---55-8-7----9--55-8-7--------------------------------|
|---------6-5----------6-5--------------------------------|
 Fuerza latina!   Mujer Latina! 

|---------------------------------------------------------|
|---------------------------------------------------------|
|--11--77--------11-77------------------------------------|
|--11--77-8-7----11-77-8-7--------------------------------|
|--9---55-8-7----9--55-8-7--------------------------------|
|---------6-5----------6-5--------------------------------|
 Fuerza latina!   Mujer Latinaaaaaaaaaa.........

|---------------------------------------------------------|
|---------------------------------------------------------|
|---------------6-5-4-------------------------------------|
|---4--77-66-4?(6)?(4)----4--77-66-4-2-3-4----------------|
|---------------------------------------------------------|
|---------------------------------------------------------|


|---------------------------------------------------------|
|---------------------------------------------------------|
|---------------6-5-4-------------------------------------|
|---4--77-66-4?(6)?(4)----4--77-66-4-2-3-4----------------|
|---------------------------------------------------------|
|---------------------------------------------------------|

|-----------------x4----|---------------x4----------------|
|-----------------------|---------------------------------|
|-----------------------|---------------------------------|
|-6--77-66-4-6----------|---7-99-77-6-7-------------------|
|-----------------------|---------------------------------|
|-----------------------|---------------------------------|
 El gringo.......         Le daba con la........


|-----------------x4----|---------------x4----------------|
|-----------------------|---------------------------------|
|-----------------------|---------------------------------|
|-6--77-66-4-6----------|---7-99-77-6-7-------------------|
|-----------------------|---------------------------------|
|-----------------------|---------------------------------|
 Al principio.........    Pero se le...........


|---------------------------------------------------------|
|---------------------------------------------------------|
|---------------6-5-4-------------------------------------|
|---4--77-66-4?(6)?(4)----4--77-66-4-2-3-4----------------|
|---------------------------------------------------------|
|---------------------------------------------------------|
                     Huhaha               Turudada        

|---------------------------------------------------------|
|---------------------------------------------------------|
|---------------6-5-4-------------------------------------|
|---4--77-66-4?(6)?(4)----4--77-66-4-2-3-4----------------|
|---------------------------------------------------------|
|---------------------------------------------------------|
                     Huhaha               Turudada        


|-----------------x4----|---------------x4----------------|
|-----------------------|---------------------------------|
|-----------------------|---------------------------------|
|-6--77-66-4-6----------|---7-99-77-6-7-------------------|
|-----------------------|---------------------------------|
|-----------------------|---------------------------------|
 El gringo era.......     La niña en........

|-----------------x4----|---------------x4----------------|
|-----------------------|---------------------------------|
|-----------------------|---------------------------------|
|-6--77-66-4-6----------|---7-99-77-6-7-------------------|
|-----------------------|---------------------------------|
|-----------------------|---------------------------------|
 Busco.........            Y asi a..............


|---------------------------------------------------------|
|---------------------------------------------------------|
|--11--77--------11-77------------------------------------|
|--11--77-8-7----11-77-8-7--------------------------------|
|--9---55-8-7----9--55-8-7--------------------------------|
|---------6-5----------6-5--------------------------------|
 Fuerza latina!   Mujer Latina! 

|---------------------------------------------------------|
|---------------------------------------------------------|
|--11--77--------11-77------------------------------------|
|--11--77-8-7----11-77-8-7--------------------------------|
|--9---55-8-7----9--55-8-7--------------------------------|
|---------6-5----------6-5--------------------------------|
 Fuerza latina!   Mujer Latinaaaaaaaaaa.........


Riff 5
|---------------------------------------------------------|
|-----10-11-8---12-10----10-8---8-------------------------|
|---9---------9--------9------9---9-----------------------|
|---------------------------------------------------------|
|---------------------------------------------------------|
|---------------------------------------------------------|

|--------------12-10--------------------------------------|
|----10-11-8------------10-8---8-11-10-8------------------|
|--9---------9--------9------9----------------------------|
|---------------------------------------------------------|
|---------------------------------------------------------|
|---------------------------------------------------------|

Bueno esta parte te toca ver el ritmo en la canción, la letra es fácil 
así que sacala nomás tu.

Esta tablatura esta 99.9% bien asi que no creo que tenga que hacer cambios 
pero si deseas hacer peticiones o cambiar algo escríbeme a 
EARTH_WARRIOR@  

Y SI TIENES PELADA Y LE TRATAS MAL............ 
ES MEJOR QUE DUERMAS BOCABAJO!!!!!!

            
            
Suggest correction
Creating personal tab
Creating personal tab
You can edit any tab online and save it as your Personal.

You can edit, replace or remove any tab part or add personal notes – all changes will be seen only by you.

Personal tabs can be accessed anytime from any device, even offline.
Learn more »
Give kudos to tab author, rate the tab!
1 2 3 4 5
comments
print report bad tab
guest
Wanna post a correction for this tab? Suggest correction