Oops, an error
Loading. Please wait.

Fantasmas Tab

185 views 1 this week
no commentswrite comment
1 2 3 4 5
please rate
add to favorites
launch autoscroll
font size
0
reset
how to read this tab
guitar tuner
Autoscroll
slow
fast
+/-
esc
set tempo
stop
Help us to improve Ultimate-Guitar.com Take our survey!
×
Author
Fantasmas
Cachorro Grande
Tab: Mateus Pranzetti 

Intro: 
   Am                        Eb7
e--5--5--0--5--5--0--5-5--0--8-8-|
B--5--5--0--5--5--0--5-5--0--7-7-|
G--5--5--0--5--5--0--5-5--0--8-8-|
D--7--7-----7--7-----7-7---------|
A--7--7-----7--7-----7-7---------|
E--5--5-----5--5-----5-5---------|
                             D7
e--5--5--0--5--5--0--5-5--0--7-7-|
B--5--5--0--5--5--0--5-5--0--6-6-|
G--5--5--0--5--5--0--5-5--0--7-7-|
D--7--7-----7--7-----7-7---------|
A--7--7-----7--7-----7-7---------|
E--5--5-----5--5-----5-5---------|

 Am                      Eb7     D7   Am
Tenho fantasmas na minha caaaaaaaaaaasa
 Am                     Eb7     D7   
que não souberam suas máaaaaaaaaaaagoas
 Dm                    C                  Bb7
Que não querem ir embora que nunca vão descansar
 Dm                    C                    Bb7   INTRO
Acham que não era a hora de ir para outro lugar

 Am                     Eb7   D7     Am
Dizem que são transpareeeeeeeeeeenntes
 Am                    Eb7     D7     
que atravessam as pareeeeeeeeeeeeeedes
 Dm                    C                  Bb7
Que não querem ir embora que nunca vão descansar
 Dm                    C                     Bb7    INTRO
Acham que não era a hora de ir para outro lugar

Interlude
e-------5---8--7--8-7-8-7-8-7--5-7--------5--7-------5--8-7-7-|
B------5---7--6-------------------------5----------5------7-6-|
G-----5---8--7------------------------5----------5--------8-7-|
D----7------------------------------7----------7--------------|
A---7---------------------------------------------------------|
E--5----------------------------------------------------------|

Solo
 (Dm                    C                  Bb7)
e---------------------------------------------------------|
B-----------------------13-15bb---17-15-13-12-13----------|
G-14-14-14-14-14-14--14--------------------------14-12-14-|
D---------------------------------------------------------|
A---------------------------------------------------------|
E---------------------------------------------------------|

 (Dm                    C              Bb7)
e------------------------------------------|
B-13---13h15b---13-------13--15-15b-13-----|
G------------------14------------------14--|
D---------------------12-------------------|
A------------------------------------------|
E------------------------------------------|

INTRO

 Am                   Eb7  D7   Am
Eles derrubam nossos cooooooopos
 Am                       Eb7  D7      
não acreditam que estão mooooooortos
 Dm                    C                  Bb7  
E assustam muita gente que não quer acreditar
 Dm                    C                      Bb7         
sinto um peso em minhas costas, não consigo respirar    

Final: Am Eb7 - 2x e depois Am Db7 Am     
Suggest correction
Give kudos to tab author, rate the tab!
1 2 3 4 5
comments
print report bad tab
guest
You may want to rate the tab now too:
select rating
Wanna post a correction for this tab? Suggest correction