Oops, an error
Loading. Please wait.

O Tempo Esta Do Meu Lado Tab

97 views 1 this week
no commentswrite comment
1 2 3 4 5
3 more votes to show rating
add to favorites
launch autoscroll
font size
0
reset
how to read this tab
guitar tuner
Autoscroll
slow
fast
+/-
esc
set tempo
stop
Help us to improve Ultimate-Guitar.com Take our survey!
×
Author
"O Tempo Está do Meu Lado"
Cachorro Grande
Tab: Mateus Pranzetti 

Riff  1
e--------------------|
B--------------------|
G---------------5b---|
D-7-7--5-5--7-7------|
A-7-7--5-5--7-7------|
E-5-5--3-3--5-5------|

Riff 2
e-------------------------------------------|
B-------------------------------------------|
G-----------------5b-----7b---5--7-5--------|
D-7-7--5-5--7-7-----------------------7-5-7-|
A-7-7--5-5--7-7-----------------------------|
E-5-5--3-3--5-5-----------------------------|

Riff  3
e-----------------------------------------|
B-----------------------------------------|
G-------------------------------------5b--|
D-7-7--5-5--7-7--5-5--7-7--5-5--7-7-------|
A-7-7--5-5--7-7--5-5--7-7--5-5--7-7-------|
E-5-5--3-3--5-5--3-3--5-5--3-3--5-5-------|

Intro: (Riff 1) 6x e depois Riff 2 

 (Riff 3)
Um dia você vai olhar pra trás
E vai ver que eu era o bicho
Você não desconfiou
 E7
Que pena, que disperdício

Interlude: (Riff 1) 2x + Riff 2

 (Riff 3)
Cercada de idiotas, você vai ver que eu era o bicho
Algo sobrenatural. 
 E7          E7           E7
Que pena, não chore, desperdício

Solo 1: (tocado 2 vezes)
e--17-15---------15--------------------------------------------|
B--------18--15b----15-----------17-17-17--15-17--15-17--15----|
G----------------------17--14-17----------------------------17-|
D--------------------------------------------------------------|
A--------------------------------------------------------------|
E--------------------------------------------------------------|

Interlude: (Riff 1) 2x + Riff 2

 (Riff 3)
Um dia você vai olhar pra trás
E vai ver que eu era o bicho
Cercada de idiotas
 E7          E7              E7
Que pena, não chore, desperdício

Solo 1 - 2x

Solo 2:
e--17-15---------15--------|
B--------18--15b----15-----|
G-----------------------17-|
D--------------------------|
A--------------------------|
E--------------------------|

e--17-1 5---------15-------------------15----15-----|
B--------18--15b----15-----------15-17----17----17--|
G----------------------17--14-17--------------------|
D---------------------------------------------------|
A---------------------------------------------------|
E---------------------------------------------------|

(Riff 1) 7x + Riff 2 

 A7
Guardou!
Suggest correction
Give kudos to tab author, rate the tab!
1 2 3 4 5
comments
print report bad tab
guest
You may want to rate the tab now too:
select rating
Wanna post a correction for this tab? Suggest correction