Oops, an error
Loading. Please wait.

Speed Metal Symphony tab

version 2
version 2

Whole song

Interactive

19,491 views 36 this week
21 commentsread comments
1 2 3 4 5
x 26
add to favorites
×
Save as Personal and add changes to this tab that will be seen only by you. Learn more ›
×
You can save this tab as Personal to edit and correct it or add notes. All changes will be seen only by you. Learn more »
launch autoscroll
font size
0
reset
how to read this tab
guitar tuner
backing track
0:00
0:00
edit
Autoscroll
slow
fast
+/-
esc
set tempo
stop
Author
Speed Metal Symphony
The whole freaking thing :)

Becker / Friedman
Overdriven Guitar 1
e|---------------------5-----|-------------5----------------5-----|
B|--------------5----5---5---|------5----5---5-------5----5---5---|
G|------------5----5-------5-|----5----5-------5---5----5-------5-|
D|----------7----------------|--7----------------7----------------|
A|---------------------------|------------------------------------|
E|---------------------------|------------------------------------|

e|-------------5----------------5-----|-------------5----------------5-----|
B|------5----5---5-------5----5---5---|------5----5---5-------5----5---5---|
G|----5----5-------5---5----5-------5-|----5----5-------5---5----5-------5-|
D|--7----------------7----------------|--7----------------7----------------|
A|------------------------------------|------------------------------------|
E|------------------------------------|------------------------------------|

e|-------------5----------------5-----|-------------5----------------5-----|
B|------5----5---5-------5----5---5---|------5----5---5-------5----5---5---|
G|----5----5-------5---5----5-------5-|----5----5-------5---5----5-------5-|
D|--7----------------7----------------|--7----------------7----------------|
A|------------------------------------|------------------------------------|
E|------------------------------------|------------------------------------|

e|-------------5----------------5-----|-------------5----------------5-----|
B|------5----5---5-------5----5---5---|------5----5---5-------5----5---5---|
G|----5----5-------5---5----5-------5-|----5----5-------5---5----5-------5-|
D|--7----------------7----------------|--7----------------7----------------|
A|------------------------------------|------------------------------------|
E|------------------------------------|------------------------------------|

e|-------------5----------------5-----|-----------||---------------------|
B|------5----5---5-------5----5---5---|-----------||---------------------|
G|----5----5-------5---5----5-------5-|-----------||*--------------------|
D|--7----------------7----------------|-----------||*--10----------------|
A|------------------------------------|--x--------||---8-----------------|
E|------------------------------------|-----------||---------------------|

e|-------------------|-------------------|--------------------------|
B|-------------------|-------------------|--------------------------|
G|-------------------|-------------------|--------------------------|
D|-------------------|--2----------------|--------------------------|
A|--2----------------|--0----------------|-----3--3--2--2--5--5--3--|
E|--0----------------|-------------------|--5-----------------------|

e|---------------------------||------------5---------------5-8-12-8-------|
B|---------------------------||----------5---5-------5---5----------10----|
G|--------------------------*||--------5-------5-------5---------------9--|
D|-----3--2-----------------*||------7-----------7------------------------|
A|--3--------5--2--3--1------||----7---------------7----------------------|
E|-----------------------5---||--8----------------------------------------|

e|-------------8-17-12-----------------------8-12/20----|------------------|
B|----------10---------13-----------------10------------|------------------|
G|--------9---------------12-9----------9---------------|------------------|
D|-----10----------------------10----10-----------------|------------------|
A|--12----------------------------12--------------------|------------------|
E|------------------------------------------------------|------------------|

e|-------------------|------------------------|-------6------5-3-------|
B|-------------------|-------6------5---------|------------------6--3--|
G|-------------------|----------------7-5--4--|--3---------------------|
D|-------------------|--7---------------------|------------------------|
A|----------------8--|------------------------|------------------------|
E|-------------------|------------------------|------------------------|

e|-------4------5-7----8--5----|
B|--5---------------5----------|
G|-----------------------------|
D|-----------------------------|
A|-----------------------------|
E|-----------------------------|

e|-----17-12----------------12----------17-12-------------------|
B|--13-------13-12----12-13----13-12-13-------13-12-------13----|
G|-----------------14-------------------------------14----------|
D|--------------------------------------------------------------|
A|--------------------------------------------------------------|
E|--------------------------------------------------------------|

e|-----17-12----------------12----------17-12-------|---------------------------|
B|--13-------13-12----12-13----13-12-13-------13-12-|--------10------8----------|
G|-----------------14-------------------------------|--14--------------10-9--8--|
D|--------------------------------------------------|---------------------------|
A|--------------------------------------------------|---------------------------|
E|--------------------------------------------------|---------------------------|

e|-------10------8-----------|---------------8-10----10--|--8--------------8-7-5-|
B|-----------------11-10--8--|--9----12-----------9------|-----------------------|
G|--7------------------------|---------------------------|-----------------------|
D|---------------------------|---------------------------|-----------------------|
A|---------------------------|---------------------------|-----------------------|
E|---------------------------|---------------------------|-----------------------|

e|---------10-8-7--------12-10-8-|------8-10-13-12-10------------------10-8-7-|
B|--8-------------8--------------|--10----------------13-12-10----------------|
G|-------------------------------|-----------------------------12-------------|
D|-------------------------------|--------------------------------------------|
A|-------------------------------|--------------------------------------------|
E|-------------------------------|--------------------------------------------|

e|---------12-10-8-----------------|
B|--8--------------8------10-12-13-|
G|---------------------------------|
D|---------------------------------|
A|---------------------------------|
E|---------------------------------|

e|--10-13-12------------------------------------|
B|-----------13-12-10---------------------------|
G|--------------------12-10-9-------------------|
D|----------------------------12-10-9-10--------|
A|----------------------------------------------|
E|----------------------------------------------|

e|--16-17-16-12-13-12-16-17-16-12-13-12-16-17-16-12-13-12-16-17-16-19-20-19-|
B|--------------------------------------------------------------------------|
G|--------------------------------------------------------------------------|
D|--------------------------------------------------------------------------|
A|--------------------------------------------------------------------------|
E|--------------------------------------------------------------------------|

e|--16-17-16-12-13-12-----------------------------------------|
B|--------------------18-17-15--15-13-15-13-12-13-12----------|
G|---------------------------------------------------14-13----|
D|------------------------------------------------------------|
A|------------------------------------------------------------|
E|------------------------------------------------------------|

e|-------------8-12-8----13-10-----------------|
B|----------10--------10-------12-9------------|
G|--------9-------------------------10---------|
D|-----10------------------------------12-9----|
A|--12--------------------------------------11-|
E|---------------------------------------------|

e|-------------8-12-8----13-10----------10-16-13--------|
B|----------10--------10-------12----12----------15-12--|
G|--------9-----------------------13--------------------|
D|-----10-----------------------------------------------|
A|--12--------------------------------------------------|
E|------------------------------------------------------|

e|--13-15-17-15-13-------------------------12-13-15-|
B|-----------------15----15-------12-13-15----------|
G|--------------------14----12-14-------------------|
D|--------------------------------------------------|
A|--------------------------------------------------|
E|--------------------------------------------------|

e|--------12----------------------------------12-13-|
B|--13-15----15-13-------------------12-13-15-------|
G|-----------------14-12-14----12-14----------------|
D|--------------------------15----------------------|
A|--------------------------------------------------|
E|--------------------------------------------------|

e|-----12-13-12----13-12-13-13-15-17-15-13-17-15-17-|
B|--15----------15----------------------------------|
G|--------------------------------------------------|
D|--------------------------------------------------|
A|--------------------------------------------------|
E|--------------------------------------------------|

e|--12-13-15-13-12-------------12-15-12-------|
B|-----------------15-13-12-13----------13----|
G|--------------------------------------------|
D|--------------------------------------------|
A|--------------------------------------------|
E|--------------------------------------------|

e|-------------------------------------------10-12-13-13-12-10----------|
B|----------------------------------10-12-13-------------------13-12-10-|
G|--------------------------9-10-12-------------------------------------|
D|------------------9-10-12---------------------------------------------|
A|----------8-10-12-----------------------------------------------------|
E|--8-10-12-------------------------------------------------------------|

e|--------------------------------------8-10-12-12-10-8---------|
B|------------------------------8-10-12-----------------12-10-8-|
G|-----------------------7-9-10---------------------------------|
D|----------------7-9-10----------------------------------------|
A|---------7-8-10-----------------------------------------------|
E|--7-8-10------------------------------------------------------|

e|---------------------------------7-8-10-10-8-7--------|
B|--------------------------6-8-10---------------10-8-6-|
G|--------------------5-7-9-----------------------------|
D|--------------5-7-9-----------------------------------|
A|--------5-7-8-----------------------------------------|
E|--5-7-8-----------------------------------------------|

e|--9-7-6--------8-6-5-6-5---5---------------------|
B|--------11-9-7-----------6---6-8-6-5-6-5---5-----|
G|-----------------------------------------7---7-5-|
D|-------------------------------------------------|
A|-------------------------------------------------|
E|-------------------------------------------------|

e|----------------------------------------------|
B|----------------------------------8-----------|
G|--7-5---5---------------6-7-6---6---6-7-6-5-6-|
D|------8---8-7-8-7-5-7-8-------8---------------|
A|----------------------------------------------|
E|----------------------------------------------|

e|------------6--------------------10----------------------------|
B|--5-6-5---5---6-5-5-6-9-10-9-9-9----9---------9-10----------10-|
G|--------6-----------------------------10-9-10------10-10-10----|
D|---------------------------------------------------------------|
A|---------------------------------------------------------------|
E|---------------------------------------------------------------|

e|--15-13-12-15-13-12-------------------------13-12-13-12-10-12-10-8-10-8----|
B|--------------------15-13-12-15-13-15-13-12-----------------------------11-|
G|---------------------------------------------------------------------------|
D|---------------------------------------------------------------------------|
A|---------------------------------------------------------------------------|
E|---------------------------------------------------------------------------|

e|--13-12-10-12-10----10----------------13-12-10-12-10----10-----------|
B|-----------------13----13-12-13-12-10----------------13----13-12-13--|
G|---------------------------------------------------------------------|
D|---------------------------------------------------------------------|
A|---------------------------------------------------------------------|
E|---------------------------------------------------------------------|

e|--12-10-8-10-8----8---------------12-10-8-10-8----8---------------|
B|---------------12---12-10-12-10-8--------------12---12-10-12-10-8-|
G|------------------------------------------------------------------|
D|------------------------------------------------------------------|
A|------------------------------------------------------------------|
E|------------------------------------------------------------------|

e|--10-8-7-8-7----7-------------10-8-7-8-7----7-------------|
B|-------------10---10-8-10-8-6------------10---10-8-10-8-6-|
G|----------------------------------------------------------|
D|----------------------------------------------------------|
A|----------------------------------------------------------|
E|----------------------------------------------------------|

e|--8-7-5-7-5---5-----------8-7-5-7-5---5-----------|
B|------------8---8-6-8-6-5-----------8---8-6-8-6-5-|
G|--------------------------------------------------|
D|--------------------------------------------------|
A|--------------------------------------------------|
E|--------------------------------------------------|

e|--7-5-3-5-3---3-----------------------------------|
B|------------6---6-5-6-5-3-5-3---3-----------------|
G|------------------------------5---5-4-5-4-2-4-2---|
D|------------------------------------------------5-|
A|--------------------------------------------------|
E|--------------------------------------------------|

e|--------------------------------------------------|-----------|
B|--------------------------------------------------|-----------|
G|--2-----------------------------------------------|-----------|
D|----5-3-5-3-2-3-2---2-----------------------------|-----------|
A|------------------5---5-3-5-3-2-3-2---2-----------|-----------|
E|------------------------------------5---5-3-5-3-1-|--0--------|

e|--------13-16-13----13-12-10-13-10---------10-13-10----10-7-10-7---|
B|--12-15----------15----------------12-9-12----------12-----------9-|
G|-------------------------------------------------------------------|
D|-------------------------------------------------------------------|
A|-------------------------------------------------------------------|
E|-------------------------------------------------------------------|

e|---------------------------------------------------|
B|--10-9-8-9-8-7-8-7-6-7-5-6-6-5-4-5-4-3-4-3-2-3-2-1-|
G|---------------------------------------------------|
D|---------------------------------------------------|
A|---------------------------------------------------|
E|---------------------------------------------------|

e|----------10----------------------------------------|
B|-----9-12----12-9-12-9-12-9----------9-9--9-6-9-6---|
G|--10------------------------10----10--------------7-|
D|-------------------------------12-------------------|
A|----------------------------------------------------|
E|----------------------------------------------------|

e|--------------------------------------------------|
B|--------------------------------------------------|
G|--8-7-6-7-6-5-6-5-4-5-4-3-4-3-2-3-2-1-2-1-0-1-0---|
D|------------------------------------------------3-|
A|--------------------------------------------------|
E|--------------------------------------------------|

e|-------------2--8--5--------------|-------------5--11--8---------------|
B|----------------------7-----------|-----------------------10-----------|
G|-------2--5--------------5--------|-------5--8----------------8--------|
D|--4-------------------------4--4--|--7---------------------------7--7--|
A|----------------------------------|------------------------------------|
E|----------------------------------|------------------------------------|

e|--------------7--13--10----------------|-----------------------10---------|
B|-------------------------12------------|--------------------9------12--9--|
G|----------10-----------------10--------|----------------------------------|
D|--9----9-------------------------9--9--|----------------12----------------|
A|---------------------------------------|--11--------11--------------------|
E|---------------------------------------|--------12------------------------|

e|------------------|-------------------|------------------|-------------------|
B|------------------|-------------------|------------------|-------------------|
G|------------------|-------------------|------------------|-------------------|
D|--12--------------|--2----------------|------------------|--2----------------|
A|------11----------|--0----------------|------------------|--2----------------|
E|----------12------|-------------------|------------------|--0----------------|

e|-------------------|-------------------|-------------------|-------------------|
B|-------------------|-------------------|-------------------|-------------------|
G|--0----------------|--2----------------|-------------------|-------------------|
D|--0----------------|--0----------------|--3----------------|--2----------------|
A|--x----------------|-------------------|--3----------------|--2----------------|
E|--3----------------|-------------------|--1----------------|--0----------------|

e|-------------------|-------------------|-------------------|-------------------|
B|-------------------|-------------------|-------------------|-------------------|
G|-------------------|-------------------|-------------------|-------------------|
D|--2----------------|--2----------------|--x----------------|--2----------------|
A|--0----------------|--0----------------|--x----------------|--2----------------|
E|-------------------|-------------------|-------------------|--0----------------|

e|-------------------|-------------------|-------------------|-------------------|
B|-------------------|-------------------|-------------------|-------------------|
G|--0----------------|--2----------------|-------------------|-------------------|
D|--0----------------|--0----------------|--3----------------|--2----------------|
A|--x----------------|-------------------|--3----------------|--2----------------|
E|--3----------------|-------------------|--1----------------|--0----------------|

e|------------------------|----------------------|----------------------|
B|------------------------|-------3----2----3----|-------3----2----3----|
G|------------------------|----------------------|----------------------|
D|--2--2--2----2--2--2----|----------------------|----------------------|
A|--0--0--0----0--0--0----|--2-------------------|--2-------------------|
E|------------------------|----------------------|----------------------|

e|----------------------|---------------------|------------------------|
B|--2-------------------|--2------------------|----------5--7--5-------|
G|-------5----4----5----|--------2---2--------|-------4-----------4----|
D|----------------------|---------------------|--2---------------------|
A|----------------------|---------------------|------------------------|
E|----------------------|---------------------|------------------------|

e|------------------------|------17--21--17--21--22--21--17--|
B|----------5--7--5-------|--19------------------------------|
G|-------4-----------4----|----------------------------------|
D|--5---------------------|----------------------------------|
A|------------------------|----------------------------------|
E|------------------------|----------------------------------|

e|--19----------------|----------------------|----------------------|
B|--------------------|-------3----2----3----|-------3----2----3----|
G|--------------------|----------------------|----------------------|
D|--------------------|----------------------|----------------------|
A|--------------------|--2-------------------|--2-------------------|
E|--------------------|----------------------|----------------------|

e|----------------------|---------------------|------------------------|
B|--2-------------------|--2------------------|----------5--7--5-------|
G|-------5----4----5----|--------2---2--------|-------4-----------4----|
D|----------------------|---------------------|--2---------------------|
A|----------------------|---------------------|------------------------|
E|----------------------|---------------------|------------------------|

e|------------------------|------17--21--17--21--22--21--17--|--19--------|
B|----------5--7--5-------|--19------------------------------|------------|
G|-------4-----------4----|----------------------------------|------------|
D|--5---------------------|----------------------------------|------------|
A|------------------------|----------------------------------|------------|
E|------------------------|----------------------------------|------------|

e|------------------|-----------------------|---------------------------|
B|------------------|-------------------9---|--------------------9--10--|
G|------------------|--9--------------9---9-|--11------------11---------|
D|------------------|---------------9-------|---------------------------|
A|------------------|-----------------------|---------------------------|
E|------------------|-----------------------|---------------------------|

e|---------------------|-----------------------------|---------------------|
B|--9------------12----|----10--9--------------------|---------------------|
G|---------------------|-----------11--------13--11--|--9---------9--------|
D|---------------------|-----------------------------|---------9-----------|
A|---------------------|-----------------------------|---------------------|
E|---------------------|-----------------------------|---------------------|

e|----------------------------------|------------------------|--10b-------|
B|---------9--12--10--9-10-9--------|------------------------|------------|
G|--9--11--------------------11--9--|--13----8--11--9--------|------------|
D|----------------------------------|------------------------|------------|
A|----------------------------------|------------------------|------------|
E|----------------------------------|------------------------|------------|

e|----------------------------------------------|
B|--13------12-13-12-10-12-13-10-12-13-10-12-13-|
G|----------------------------------------------|
D|----------------------------------------------|
A|----------------------------------------------|
E|----------------------------------------------|

e|---------------------------------------|
B|--13b-----13--12----12-13-15-12-13-15--|
G|-----------------14--------------------|
D|---------------------------------------|
A|---------------------------------------|
E|---------------------------------------|

e|---------------------------------------------|-----------------------------|
B|--15b-----15-13-12-15-13-15-13-12-13-15-17b--|---15-13-15-13-12------------|
G|---------------------------------------------|-----------------------------|
D|---------------------------------------------|-----------------------------|
A|---------------------------------------------|-----------------------------|
E|---------------------------------------------|-----------------------------|

e|--------------------|----------------------|--------------------------|
B|--13----------------|--13b-------------12b-|-----------------12-13-15-|
G|--------------------|----------------------|--------------14----------|
D|--------------------|----------------------|--------------------------|
A|--------------------|----------------------|--------------------------|
E|--------------------|----------------------|--------------------------|

e|--12------13-12-----------|
B|----------------15--------|
G|--------------------------|
D|--------------------------|
A|--------------------------|
E|--------------------------|

e|--------------------------------------------13----------------|
B|--13-------13-17-15-17-15-13-------------13----17-15-13-15-13-|
G|--------14-------------------15-14----14----------------------|
D|-----14----------------------------15-------------------------|
A|--------------------------------------------------------------|
E|--------------------------------------------------------------|

e|--------------15-------------------15----15----15----15-|
B|-----------15----18-17-15-17-15-------------------------|
G|--16----16----------------------17----16----14----12----|
D|-----17-------------------------------------------------|
A|--------------------------------------------------------|
E|--------------------------------------------------------|

e|--------------------------------------------13----------------|
B|--13-------13-17-15-17-15-13-------------13----17-15-13-15-13-|
G|--------14-------------------15-14----14----------------------|
D|-----14----------------------------15-------------------------|
A|--------------------------------------------------------------|
E|--------------------------------------------------------------|

e|--------------15-------------------15----15-------|
B|-----------15----18-17-15-17-15-------------------|
G|--16----16----------------------17----16----17----|
D|-----17-------------------------------------------|
A|--------------------------------------------------|
E|--------------------------------------------------|

e|--17-13----13-17-13-17-13----13-17-13-17-13----13-17-13-17-13----13-17-13-|
B|--------15----------------15----------------15----------------15----------|
G|--------------------------------------------------------------------------|
D|--------------------------------------------------------------------------|
A|--------------------------------------------------------------------------|
E|--------------------------------------------------------------------------|

e|--14-11----11-14-11-14-11----11-14-11-14-11----11-14-11-14-11----11-14-11-|
B|--------12----------------12----------------12----------------12----------|
G|--------------------------------------------------------------------------|
D|--------------------------------------------------------------------------|
A|--------------------------------------------------------------------------|
E|--------------------------------------------------------------------------|

e|--15-12----12-15-12-15-12----12-15-12-15-12----12-15-12-15-12----12-15-12-|
B|--------12----------------12----------------12----------------12----------|
G|--------------------------------------------------------------------------|
D|--------------------------------------------------------------------------|
A|--------------------------------------------------------------------------|
E|--------------------------------------------------------------------------|

e|--15-12----12-15-12-15-12----12-15-12-15-12----12-15-12-15-12----12-15-12-|
B|--------13----------------13----------------13----------------13----------|
G|--------------------------------------------------------------------------|
D|--------------------------------------------------------------------------|
A|--------------------------------------------------------------------------|
E|--------------------------------------------------------------------------|

e|--17-13----13-17-13-17-13----13-17-13-17-13----13-17-13-17-13----13-17-13-|
B|--------15----------------15----------------15----------------15----------|
G|--------------------------------------------------------------------------|
D|--------------------------------------------------------------------------|
A|--------------------------------------------------------------------------|
E|--------------------------------------------------------------------------|

e|--14-11----11-14-11-14-11----11-14-11-14-11----11-14-11-14-11----11-14-11-|
B|--------12----------------12----------------12----------------12----------|
G|--------------------------------------------------------------------------|
D|--------------------------------------------------------------------------|
A|--------------------------------------------------------------------------|
E|--------------------------------------------------------------------------|

e|--15-12----12-15-12-15-12----12-15-12-15-12----12-15-12-15-12----12-15-12-|
B|--------12----------------12----------------12----------------12----------|
G|--------------------------------------------------------------------------|
D|--------------------------------------------------------------------------|
A|--------------------------------------------------------------------------|
E|--------------------------------------------------------------------------|

e|--11-8---8-11-8-11-8---8-11-8-11-8---8-11-8-11-8---8-11-8-|
B|-------8-------------8-------------8-------------8--------|
G|----------------------------------------------------------|
D|----------------------------------------------------------|
A|----------------------------------------------------------|
E|----------------------------------------------------------|

e|--9-6---6-9-6-9-6---6-9-6-9-6---6-9-6-9-6---6-9-6-|
B|------8-----------8-----------8-----------8-------|
G|--------------------------------------------------|
D|--------------------------------------------------|
A|--------------------------------------------------|
E|--------------------------------------------------|

e|--10-6---6-10-6-10-6---6-10-6-10-6---6-10-6-10-6---6-10-6-|
B|-------6-------------6-------------6-------------6--------|
G|----------------------------------------------------------|
D|----------------------------------------------------------|
A|----------------------------------------------------------|
E|----------------------------------------------------------|

e|--12-9----9-12-9-12-9----9-12-9-12-9----9-12-9-12-9----9-12-9-|
B|-------11-------------11-------------11-------------11--------|
G|--------------------------------------------------------------|
D|--------------------------------------------------------------|
A|--------------------------------------------------------------|
E|--------------------------------------------------------------|

e|--13-10----10-13-10-13-10----10-13-10-13-10----10-13-10-13-10----10-13-10-|
B|--------11----------------11----------------11----------------11----------|
G|--------------------------------------------------------------------------|
D|--------------------------------------------------------------------------|
A|--------------------------------------------------------------------------|
E|--------------------------------------------------------------------------|

e|--15-12----12-15-12-15-12----12-15-12-18-12----12-15-12-18-12----12-18-12-|
B|--------14----------------14----------------14----------------14----------|
G|--------------------------------------------------------------------------|
D|--------------------------------------------------------------------------|
A|--------------------------------------------------------------------------|
E|--------------------------------------------------------------------------|

e|--17-13----13-17-13-17-13----13-17-13-18-13----13-17-13-18-13----13-18-13-|
B|--------15----------------15----------------15----------------15----------|
G|--------------------------------------------------------------------------|
D|--------------------------------------------------------------------------|
A|--------------------------------------------------------------------------|
E|--------------------------------------------------------------------------|

e|--17-14----14-17-14-17-14----14-17-14-17-14----14-17-14-17-14----14-17-14-|
B|--------15----------------15----------------15----------------15----------|
G|--------------------------------------------------------------------------|
D|--------------------------------------------------------------------------|
A|--------------------------------------------------------------------------|
E|--------------------------------------------------------------------------|

e|--17-12----12-17-12-17-12----12-17-12-18-14----14-18-14-18-14----14-18-14-|
B|--------14----------------14----------------14----------------14----------|
G|--------------------------------------------------------------------------|
D|--------------------------------------------------------------------------|
A|--------------------------------------------------------------------------|
E|--------------------------------------------------------------------------|

e|--19-14----14-19-14-19-14----14-19-14-19-14----14-19-14-19-14----14-19-14-|
B|--------15----------------15----------------15----------------15----------|
G|--------------------------------------------------------------------------|
D|--------------------------------------------------------------------------|
A|--------------------------------------------------------------------------|
E|--------------------------------------------------------------------------|

e|--18-15----15-18-15-18-15----15-18-15-18-15----15-18-15-18-15----15-18-15-|
B|--------15----------------15----------------15----------------15----------|
G|--------------------------------------------------------------------------|
D|--------------------------------------------------------------------------|
A|--------------------------------------------------------------------------|
E|--------------------------------------------------------------------------|

e|--17-14----14-17-14-17-14----14-17-14-17-14----14-17-14-17-14----14-17-14-|
B|--------15----------------15----------------15----------------15----------|
G|--------------------------------------------------------------------------|
D|--------------------------------------------------------------------------|
A|--------------------------------------------------------------------------|
E|--------------------------------------------------------------------------|

e|--17-12----12-17-12-17-12----12-17-12-18-14----14-18-14-18-14----14-18-14-|
B|--------14----------------14----------------14----------------14----------|
G|--------------------------------------------------------------------------|
D|--------------------------------------------------------------------------|
A|--------------------------------------------------------------------------|
E|--------------------------------------------------------------------------|

e|--19-14----14-19-14-19-14----14-19-14-19-14----14-19-14-19-14----14-19-14-|
B|--------15----------------15----------------15----------------15----------|
G|--------------------------------------------------------------------------|
D|--------------------------------------------------------------------------|
A|--------------------------------------------------------------------------|
E|--------------------------------------------------------------------------|

e|--18-15----15-18-15-18-15----15-18-15-18-15----15-18-15-18-15----15-18-15-|
B|--------15----------------15----------------15----------------15----------|
G|--------------------------------------------------------------------------|
D|--------------------------------------------------------------------------|
A|--------------------------------------------------------------------------|
E|--------------------------------------------------------------------------|

e|------------------------|---------------------------|-----------------7--------|
B|--20b-------------------|---------------------------|-----8--8-----------8-----|
G|------------------------|------------------9--9-----|-----------9-----------9--|
D|------------------------|----9--9----------------9--|--9-----------9-----------|
A|------------------------|----------10--10-----------|--------------------------|
E|------------------------|---------------------------|--------------------------|

e|------------------------------|--------------------------------------|
B|------------------------------|-----10--10----------13--10-13-10-----|
G|-----8--8----------11--11--8--|--8----------11--11---------------11--|
D|-----------10--10-------------|--------------------------------------|
A|--9---------------------------|--------------------------------------|
E|------------------------------|--------------------------------------|

e|----------------------------|-----10--10----------12--11-12-11-10--|
B|-----9--9--------12--12--9--|--9----------12--12-------------------|
G|-----------9--9-------------|--------------------------------------|
D|--9-------------------------|--------------------------------------|
A|----------------------------|--------------------------------------|
E|----------------------------|--------------------------------------|

e|--8--12--12----------8--8-----|-------------------------------|
B|-------------10--10-----------|-----10--10--------------------|
G|---------------------------9--|--9------------------9---------|
D|------------------------------|-------------10--10-----10--7--|
A|------------------------------|-------------------------------|
E|------------------------------|-------------------------------|

e|--------------------------|-------------------10---------|
B|-----------------7--7-----|-----10--10--7--7------10--7--|
G|-----7--7--------------7--|--7---------------------------|
D|-----------7--7-----------|------------------------------|
A|--9-----------------------|------------------------------|
E|--------------------------|------------------------------|

e|-----10--10-------------------|---------------12--9---------------|
B|--8----------11--11--8--8-----|--------8--11---------11--8--------|
G|---------------------------7--|--6--9-----------------------9--6--|
D|------------------------------|-----------------------------------|
A|------------------------------|-----------------------------------|
E|------------------------------|-----------------------------------|

e|------------------------------|---------------------------|
B|-----10--10-------------------|-----10--9--8--------------|
G|--7----------10--10--7--7-----|---------------9--6--------|
D|---------------------------7--|---------------------8--5--|
A|------------------------------|--0------------------------|
E|------------------------------|---------------------------|

e|-------------------------|------------------------------------12--15--13--|
B|-------------------------|--------------------------------14--------------|
G|--------7----------------|------------------------12--15------------------|
D|-----7-----7-------------|-----------------9--14--------------------------|
A|--8-----------8--5--8----|---------10--13---------------------------------|
E|-------------------------|--9--12-----------------------------------------|

e|---17--13--------------13--18--13--18--13------13--|
B|-----------15------15----------------------15------|
G|*--------------14----------------------------------|
D|*--------------------------------------------------|
A|---------------------------------------------------|
E|---------------------------------------------------|

e|--17--13--------------13--18--13--18--13------13--|
B|----------15------15----------------------15------|
G|--------------14----------------------------------|
D|--------------------------------------------------|
A|--------------------------------------------------|
E|--------------------------------------------------|

e|--16--13------------------------13-16-13-16-13----16-|
B|----------15--12----------12-15----------------15----|
G|-----------------13----13----------------------------|
D|--------------------15-------------------------------|
A|-----------------------------------------------------|
E|-----------------------------------------------------|

e|--17--14------------------------14-17-14-17-14----14--||
B|----------16--13----------13-16----------------16-----||
G|-----------------14-11-14----------------------------*||
D|-----------------------------------------------------*||
A|------------------------------------------------------||
E|------------------------------------------------------||

e|--18--15------------------------15-18-15-18-15----15-|
B|----------17--14----------14-17----------------17----|
G|-----------------15-12-15----------------------------|
D|-----------------------------------------------------|
A|-----------------------------------------------------|
E|-----------------------------------------------------|

e|--19--16------------------------16-19-16-19-16----16-|--19b---19--19----------|
B|----------18--15----------15-18----------------18----|------------------------|
G|-----------------16-13-16----------------------------|------------------------|
D|-----------------------------------------------------|------------------------|
A|-----------------------------------------------------|------------------------|
E|-----------------------------------------------------|------------------------|

e|--17-15----18----17-15----------15----------------|
B|--------18----18-------18-17-18----17-18-17-15----|
G|-----------------------------------------------17-|
D|--------------------------------------------------|
A|--------------------------------------------------|
E|--------------------------------------------------|

e|--17-15----18----17-15----------15----------------|
B|--------18----18-------18-17-18----17-18-17-15----|
G|-----------------------------------------------17-|
D|--------------------------------------------------|
A|--------------------------------------------------|
E|--------------------------------------------------|

e|--15-------17----15-------------------------------|
B|-----18-17----17----18-17-15-17-18-15-17-15-------|
G|--------------------------------------------17-15-|
D|--------------------------------------------------|
A|--------------------------------------------------|
E|--------------------------------------------------|

e|--15-------17----15-------------------------------|
B|-----18-17----17----18-17-15-17-18-15-17-15-------|
G|--------------------------------------------17-15-|
D|--------------------------------------------------|
A|--------------------------------------------------|
E|--------------------------------------------------|

e|--13-------15----13-------------------------------|
B|-----16-15----15----16-15-13-15-16-13-15-13-------|
G|--------------------------------------------15-14-|
D|--------------------------------------------------|
A|--------------------------------------------------|
E|--------------------------------------------------|

e|--13-------15----13-------------------------------|------------------------|
B|-----16-15----15----16-15-13-15-16-13-15-13-------|------------------------|
G|--------------------------------------------15-14-|--12--------14----12----|
D|--------------------------------------------------|------------------------|
A|--------------------------------------------------|------------------------|
E|--------------------------------------------------|------------------------|

e|--------------------------|----------------------------|----------------------|
B|--------------------------|----------------------------|------------14--------|
G|--12------14-12-11--------|----------------11----14----|----------------------|
D|--------------------------|--12------------------------|--11------------------|
A|--------------------------|----------------------------|----------------------|
E|--------------------------|----------------------------|----------------------|

e|---------------------------|---------------------|
B|---------------------------|-----------11--------|
G|----------------9----12----|---------------------|
D|--10-----------------------|--8------------------|
A|---------------------------|---------------------|
E|---------------------------|---------------------|

e|--------------------------------------|--------------------------------------|
B|--7-7-10-7-7-7-10-7-7-7-10-7-7-7-10-7-|--8-8-12-8-8-8-12-8-8-8-12-8-8-8-12-8-|
G|--------------------------------------|--------------------------------------|
D|--------------------------------------|--------------------------------------|
A|--------------------------------------|--------------------------------------|
E|--------------------------------------|--------------------------------------|

e|--------------------------------------------------|
B|--10-10-13-10-10-10-13-10-10-10-13-10-10-10-13-10-|
G|--------------------------------------------------|
D|--------------------------------------------------|
A|--------------------------------------------------|
E|--------------------------------------------------|

e|--------------------------------------------------|
B|--12-12-15-12-12-12-15-12-12-12-15-12-12-12-15-12-|
G|--------------------------------------------------|
D|--------------------------------------------------|
A|--------------------------------------------------|
E|--------------------------------------------------|

e|--------------------------------------------------|
B|--13-13-17-13-13-13-17-13-13-13-17-13-13-13-17-13-|
G|--------------------------------------------------|
D|--------------------------------------------------|
A|--------------------------------------------------|
E|--------------------------------------------------|

e|--------------------------------------------------|
B|--15-15-19-15-15-15-19-15-15-15-19-15-15-15-19-15-|
G|--------------------------------------------------|
D|--------------------------------------------------|
A|--------------------------------------------------|
E|--------------------------------------------------|

e|--------------------------------------------------|
B|--17-17-20-17-17-17-20-17-17-17-20-17-17-17-20-17-|
G|--------------------------------------------------|
D|--------------------------------------------------|
A|--------------------------------------------------|
E|--------------------------------------------------|

e|--19----------------------------|----------------------|----------------------|
B|------19------------------------|--10------------12r---|--------------10------|
G|----------20--------------------|----------------------|------------------12--|
D|--------------21----------------|----------------------|----------------------|
A|------------------21--18--21----|----------------------|----------------------|
E|--------------------------------|----------------------|----------------------|

e|------------------------|--12-10-----------12-10---------------------|
B|--------------------10--|--------12-10-12--------12-10-12--12-10-12--|
G|--11------------12------|--------------------------------------------|
D|------------------------|--------------------------------------------|
A|------------------------|--------------------------------------------|
E|------------------------|--------------------------------------------|

e|------------------------|----------------------|----------------------------|
B|--10------------12--13--|--13b-----------16----|------------16--17--16------|
G|------------------------|----------------------|------------------------17--|
D|------------------------|----------------------|----------------------------|
A|------------------------|----------------------|----------------------------|
E|------------------------|----------------------|----------------------------|

e|------17b-------------||-------------------------|-----------------------|
B|----------------------||-------------------10----|-----------------------|
G|--14------------------||*--10--------12----------|--12------9------------|
D|----------------------||*------------------------|-------------10--------|
A|----------------------||-------------------------|-----------------------|
E|----------------------||-------------------------|-----------------------|

e|------------------------|----------------12-11-12-10-12-8-12----12----12--||
B|------------------------|---------10--13---------------------12----10-----||
G|--9---------------------|------9-----------------------------------------*||
D|-------12----10----9----|--10--------------------------------------------*||
A|------------------------|-------------------------------------------------||
E|------------------------|-------------------------------------------------||

e|--12-12-13-12-12-16-12-12-17-12-12-16-12-12-13-12-|
B|--------------------------------------------------|
G|--------------------------------------------------|
D|--------------------------------------------------|
A|--------------------------------------------------|
E|--------------------------------------------------|

e|--12-12-13-12-12-16-12-12-17-12-12-16-12-12-13-12-|--17--------19----20----|
B|--------------------------------------------------|------------------------|
G|--------------------------------------------------|------------------------|
D|--------------------------------------------------|------------------------|
A|--------------------------------------------------|------------------------|
E|--------------------------------------------------|------------------------|

e|--20------------------|--------------------------------------------|
B|----------20----------|--------------------------------------------|
G|----------------------|--12-14-12-14-10-12-10-12-9-10-9-10-7-9-7-9-|
D|----------------------|--------------------------------------------|
A|----------------------|--------------------------------------------|
E|----------------------|--------------------------------------------|

e|----------------------------|------------------------|-----------------------|
B|----------------------------|------------------10----|--12b------------------|
G|----------------------------|--10--------12----------|----------9------------|
D|--10--------10----9----7----|------------------------|-------------10--------|
A|----------------------------|------------------------|-----------------------|
E|----------------------------|------------------------|-----------------------|

e|---------------------------------------10-7-|--10-7-----------13-10-----------|
B|-------------------12-9-12-9---------9------|-------9----9-12-------13b-------|
G|--13-10---------10-----------10-7-10--------|---------10----------------------|
D|--------12-9-12-----------------------------|---------------------------------|
A|--------------------------------------------|---------------------------------|
E|--------------------------------------------|---------------------------------|

e|-----------13-15-13----------17-15-13-15-13-------|
B|--13-15-17----------17-15-13----------------17-15-|
G|--------------------------------------------------|
D|--------------------------------------------------|
A|--------------------------------------------------|
E|--------------------------------------------------|

e|-----------13-15-13----------17-15-13-15-13-------|
B|--13-15-17----------17-15-13----------------17-15-|
G|--------------------------------------------------|
D|--------------------------------------------------|
A|--------------------------------------------------|
E|--------------------------------------------------|

e|-----------12-13-12----------15-13-12-13-12-------|
B|--12-13-15----------15-13-12----------------15-13-|
G|--------------------------------------------------|
D|--------------------------------------------------|
A|--------------------------------------------------|
E|--------------------------------------------------|

e|-----------12-13-12----------15-13-12-13-12-------|
B|--12-13-15----------15-13-12----------------15-13-|
G|--------------------------------------------------|
D|--------------------------------------------------|
A|--------------------------------------------------|
E|--------------------------------------------------|

e|-----15-13-12-13-12----12-------------------------|
B|--13----------------15----15-13-15-13-12-13-12----|
G|-----------------------------------------------14-|
D|--------------------------------------------------|
A|--------------------------------------------------|
E|--------------------------------------------------|

e|--------------------------------------------------|
B|--12----------------------------------------------|
G|-----14-12-14-12----12----------------------------|
D|-----------------15----15-14-15-14-12-14-12----12-|
A|--------------------------------------------15----|
E|--------------------------------------------------|

e|----------------------------------------------|
B|-----------------------12-------12-------12---|
G|--------------------13-------13-------13------|
D|-----12-15----12-15-------15-------15---------|
A|--14-------14---------------------------------|
E|----------------------------------------------|

e|--16-13--------------------------------13-16-19-|
B|--------15-----------12-15-12----12-15----------|
G|------------13----13----------13----------------|
D|---------------15-------------------------------|
A|------------------------------------------------|
E|------------------------------------------------|

e|--19----------------------------------------------|
B|-----13-15-13----13-15-13-17-13-15-13----13-15-13-|
G|--------------14----------------------14----------|
D|--------------------------------------------------|
A|--------------------------------------------------|
E|--------------------------------------------------|

e|--------------------------------------------------|
B|--17-13-15-13----13-15-13-17-13-15-13----13-15-13-|
G|--------------14----------------------14----------|
D|--------------------------------------------------|
A|--------------------------------------------------|
E|--------------------------------------------------|

e|--------------------------------------------------|
B|--15-12-15-13----12-13-12-15-12-13-12----12-13-12-|
G|--------------12----------------------12----------|
D|--------------------------------------------------|
A|--------------------------------------------------|
E|--------------------------------------------------|

e|--------------------------------------------------|
B|--15-12-15-13----12-13-12-15-12-13-12----12-13-12-|
G|--------------12----------------------12----------|
D|--------------------------------------------------|
A|--------------------------------------------------|
E|--------------------------------------------------|

e|--12--------------12----------------12--------|
B|-----13--------------13----------13----13-----|
G|--------12-----12-------12----12----------12--|
D|------------14-------------14-----------------|
A|----------------------------------------------|
E|----------------------------------------------|

e|------------------------------------|
B|--------13--------------------------|
G|-----12----14-12--------------------|
D|--14-------------14-12----12--------|
A|-----------------------15-----------|
E|------------------------------------|

e|---------------------------------------------13-|
B|---------------------12-------12-------12-15----|
G|-------10------10-13----10-13----10-13----------|
D|--9-12----9-12----------------------------------|
A|------------------------------------------------|
E|------------------------------------------------|

e|--16-13----------------------------------------19-|--19b---------------|
B|--------15----------------15-------------18-21----|--------------------|
G|-----------16-13----13-16----16----16-19----------|--------------------|
D|-----------------15-------------18----------------|--------------------|
A|--------------------------------------------------|--------------------|
E|--------------------------------------------------|--------------------|

e|--------20----17----------------------|------------------------------|
B|--17----------------17----13----------|------------------------------|
G|--------------------------------14----|------------------------------|
D|--------------------------------------|--14--------------------------|
A|--------------------------------------|--------15----12--------------|
E|--------------------------------------|--------------------12--------|

e|----------------------|------------------------|----------------------|
B|----------------------|------------12----------|--15b-----------17b---|
G|----------------------|--14--------------14----|----------------------|
D|--14------------15----|------------------------|----------------------|
A|----------------------|------------------------|----------------------|
E|----------------------|------------------------|----------------------|

e|------------------------|----------------------|----------------------------|
B|--17--------17----18----|--18b---------22b-----|--18--------22----18-22-18--|
G|------------------------|----------------------|----------------------------|
D|------------------------|----------------------|----------------------------|
A|------------------------|----------------------|----------------------------|
E|------------------------|----------------------|----------------------------|

e|----------------------|--------------------------|----------------------|
B|--17------------13----|--12----------12----13----|--12------------15----|
G|----------------------|--------14----------------|----------------------|
D|----------------------|--------------------------|----------------------|
A|----------------------|--------------------------|----------------------|
E|----------------------|--------------------------|----------------------|

e|------13--------17----|------19------17----------|
B|----------------------|------------------18--15--|
G|----------------------|--------------------------|
D|----------------------|--------------------------|
A|----------------------|--------------------------|
E|----------------------|--------------------------|

e|------------------------------|----------------------|----------------17----|
B|----------12------15----------|------12--------15----|------18--------------|
G|--16--14------14------14------|----------------------|----------------------|
D|------------------------------|----------------------|----------------------|
A|------------------------------|----------------------|----------------------|
E|------------------------------|----------------------|----------------------|

e|--19----17--19--17-----------------------|-------------------------------|
B|--------------------18-------------------|-------------------------------|
G|------------------------19--16-17-16-----|--16----14-16-14---------------|
D|-------------------------------------19--|-----------------15------------|
A|-----------------------------------------|---------------------17--------|
E|-----------------------------------------|-------------------------------|

e|----------------------|------------------------|--12------------12b---|
B|----------------------|------------12----13----|----------------------|
G|----------------------|--14--------------------|----------------------|
D|--14------------15----|------------------------|----------------------|
A|----------------------|------------------------|----------------------|
E|----------------------|------------------------|----------------------|

e|--12--------12----13----|--17------------19--17--|
B|------------------------|------------------------|
G|------------------------|------------------------|
D|------------------------|------------------------|
A|------------------------|------------------------|
E|------------------------|------------------------|

e|--13--------17----13--17--13--|----------------------|------------------------|
B|------------------------------|--17------------13----|--12----------12--------|
G|------------------------------|----------------------|--------14--------------|
D|------------------------------|----------------------|------------------------|
A|------------------------------|----------------------|------------------------|
E|------------------------------|----------------------|------------------------|

e|--------------------|---------------------------------12-|
B|--14~---------------|--14~-----12-15-12---------12-14----|
G|--------------------|-------------------15---------------|
D|--------------------|------------------------------------|
A|--------------------|------------------------------------|
E|--------------------|------------------------------------|

e|--15-12------------------------------|---------------------------------|
B|--------14-11-------14---------------|---------------------------------|
G|--------------12--------12-----------|--11--10--11--10-11-10-9------x--|
D|-----------------14---------------8--|---------------------------------|
A|------------------------------10-----|---------------------------------|
E|-------------------------------------|---------------------------------|

e|--------7-12-7------------------------|------------------------------19-|
B|----7-8--------8-7------7-------------|---------------------------------|
G|--9----------------9------9---------9-|---------------------------------|
D|---------------------10-----10-9-10---|--10-9------10-9-----------------|
A|--------------------------------------|-------10-9------10-9-7----------|
E|--------------------------------------|---------------------------------|

e|--19--15----------18--14--------------------------|----------------------------|
B|----------17--15----------15--13----------15------|----------------------------|
G|----------------------------------14----------15--|--12----------14------------|
D|--------------------------------------15----------|------14--------------------|
A|--------------------------------------------------|----------15----------------|
E|--------------------------------------------------|----------------------------|

e|-------------------------------------------|-----------------------------------|
B|----------------17--10-17-10---------------|-----------------------------------|
G|--12----12--14---------------12-9--12--11--|---------11--10---------10--9------|
D|-------------------------------------------|--12-------------11----------------|
A|-------------------------------------------|------9--------------8-------------|
E|-------------------------------------------|-----------------------------------|

e|---12----15-15----------------------------------12-|
B|------14-------15---------------12-15-----11-14----|
G|------------------12-0-9-6---12-------12-----------|
D|---------------------------------------------------|
A|---------------------------------------------------|
E|---------------------------------------------------|


                                                       3x
e|--15-21-15----22r---21--------||-----|----|----|-----||----||
B|-----------17-----------------||-----|----|----|-----||----||
G|------------------------------||*----|----|----|----*||----||
D|------------------------------||*----|----|----|----*||----||
A|------------------------------||-----|----|----|-----||----||
E|------------------------------||-----|----|----|-----||----||


Becker / Friedman
Overdriven Guitar 2
e|------------------|--------------------|--------------------|
B|------------------|--------------------|--------------------|
G|------------------|--------------------|--------------------|
D|------------------|--2--------3--------|-----------2--------|
A|------------------|--------------------|--5-----------------|
E|------------------|--------------------|--------------------|

e|--------------------|--------------------|--------------------|
B|--------------------|--------------------|--------------------|
G|--------------------|--------------------|--------------------|
D|--------------------|--------------------|--------------------|
A|--3--------5--------|--2--------3--------|--3--------5--------|
E|--------------------|--------------------|--------------------|

e|--------------------|--------------------|--------------------|----------|
B|--------------------|--------------------|--------------------|----------|
G|--------------------|--------------------|--------------------|----------|
D|--------------------|--------------------|--------------------|----------|
A|--2--------3--------|--------------------|--------------------|----------|
E|--------------------|--5--------7--------|--4--------5--------|----------|

e|----------------------------|---------------------------|
B|----------------------------|---------------------------|
G|*----------3----------------|----------4----------------|
D|*----------3----------------|----------2----------------|
A|----------------------------|---------------------------|
E|----------------------------|---------------------------|

e|---------------------------|-----------------------------|
B|---------------------------|-----------------------------|
G|----------2----------------|-------------------7--7------|
D|----------2----------------|--7--10--10--9--9--------10--|
A|---------------------------|-----------------------------|
E|---------------------------|-----------------------------|

e|------------------------------||------------------|------------------|
B|------------------------------||------------------|------------------|
G|------10--9--7---------------*||------------------|------------------|
D|--10------------9--10--8--7--*||------------------|------------------|
A|------------------------------||------------------|------------------|
E|------------------------------||------------------|------------------|

e|------------------|-------------------|------------------------|
B|------------------|-------------------|------------------------|
G|------------------|-------------------|------------------------|
D|------------------|-------------------|------------------------|
A|------------------|-------------------|--7----8------7-5-------|
E|------------------|----------------5--|------------------8--7--|

e|------------------------|------------------------------|
B|------------------------|------------------------------|
G|------------------------|------------------------------|
D|-------8------7-5-------|-------6------7-9----10--7----|
A|------------------8--5--|--7---------------7-----------|
E|--6---------------------|------------------------------|

e|----5---------------------5-----------------|----5---------------------5-------|
B|------5-----------5---------5---------------|------5-----------5---------5-----|
G|--5-----5-4---4-5---5-4-5-----5-4------5----|--5-----5-4---4-5---5-4-5-----5-4-|
D|------------7---------------------7---------|------------7---------------------|
A|--------------------------------------------|----------------------------------|
E|--------------------------------------------|----------------------------------|

e|------------------------|-------6------5-3-------|-------4------5-7----8--|
B|-------6------5-3-------|------------------6--3--|--5---------------5-----|
G|------------------5--4--|--3---------------------|------------------------|
D|--7---------------------|------------------------|------------------------|
A|------------------------|------------------------|------------------------|
E|------------------------|------------------------|------------------------|

e|--5-8-5-8-5-8-5-8-5-8-5-8-5-8-5-8-5-8-5-8-5-8-5-8-----|
B|------------------------------------------------------|
G|------------------------------------------------------|
D|------------------------------------------------------|
A|------------------------------------------------------|
E|------------------------------------------------------|

e|----------------------------------|-----------------------------------|
B|----------------------------------|-----------------------------------|
G|--5-0-0-0-0-0-7-5-7-0-0-0-0-0-9-7-|--9-0-7-9-10-9-7---0-0-0-0-0-0-7-5-|
D|----------------------------------|-----------------9-----------------|
A|----------------------------------|-----------------------------------|
E|----------------------------------|-----------------------------------|

e|-----------------------------------|-----------------------------------------|
B|-----------------------------------|-----------------------------------------|
G|--7-0-0-0-0-0-9-7-9-0-0-0-0-0-10-9-|--10-12-10-9-----------------------------|
D|-----------------------------------|-------------12-10-9-12-10---------------|
A|-----------------------------------|---------------------------10-7-10-------|
E|-----------------------------------|-----------------------------------8--7--|

e|----------------------------------|--------------------------------------|
B|----------------------------------|--------------------------------------|
G|----------------------------------|--------------------------------------|
D|--------------6-7-6---------------|--------7-10-9-7-10-9-7---------------|
A|--------5-7-8-------8-7-5-7-5-----|------7-----------------10-8-7--------|
E|--5-7-8-----------------------8-7-|--5-8--------------------------10-7-8-|

e|------------7--4---------------|----------5-12-8----7------------------|
B|-----------------6-3-----------|--------5--------10---10-9-------------|
G|---------5-----------4---4-7-4-|--5---5--------------------10-9-7------|
D|-----------------------6-------|----7-----------------------------10-9-|
A|------7------------------------|---------------------------------------|
E|--5-8--------------------------|---------------------------------------|

e|---------------------------|----------------------------|
B|-----------10--------------|----------------------------|
G|--10----7---------------7--|----9-------------------10--|
D|---------------------9-----|-------10------7----10------|
A|---------------10----------|-----------10---------------|
E|---------------------------|----------------------------|

e|----------------------------|-------8-----------------8--------|
B|----------------------------|--8-10---10-8----------8---8------|
G|--7--------------10---------|--------------10-9-7-9-------9----|
D|-------7------10-----10--7--|----------------------------------|
A|----------8-----------------|----------------------------------|
E|----------------------------|----------------------------------|

e|---------------------|--------------------|--------------------|
B|---------------------|--------------------|--------------------|
G|---------------------|--------------------|--------------------|
D|--10--------7--------|--9--------5--------|--7--------3--------|
A|---------------------|--------------------|--------------------|
E|--8---------5--------|--7--------3--------|--5--------1--------|

e|---------------------|------------------|----------------------|
B|---------------------|------------------|----------------------|
G|--8----7------5------|------------------|----------------------|
D|--8----7------5------|------------------|----------------------|
A|--6----5------3------|------------------|----------------------|
E|---------------------|------------------|----------------------|

e|--12-10-8-10-8----8---------------12-10-8-10-8----8---------------|
B|---------------12---12-10-12-10-8--------------12---12-10-12-10-8-|
G|------------------------------------------------------------------|
D|------------------------------------------------------------------|
A|------------------------------------------------------------------|
E|------------------------------------------------------------------|

e|--10-8-7-8-7----7-------------10-8-7-8-7----7-------------|
B|-------------10---10-8-10-8-6------------10---10-8-10-8-6-|
G|----------------------------------------------------------|
D|----------------------------------------------------------|
A|----------------------------------------------------------|
E|----------------------------------------------------------|

e|--8-7-5-7-5---5-----------8-7-5-7-5---5-----------|
B|------------8---8-6-8-6-5-----------8---8-6-8-6-5-|
G|--------------------------------------------------|
D|--------------------------------------------------|
A|--------------------------------------------------|
E|--------------------------------------------------|

e|--7-5-3-5-3---3-----------7-5-3-5-3---3-----------|
B|------------6---6-5-6-5-3-----------6---6-5-6-5-3-|
G|--------------------------------------------------|
D|--------------------------------------------------|
A|--------------------------------------------------|
E|--------------------------------------------------|

e|--5-3-1-3-1---1-----------5-3-1-3-1---1-----------|
B|------------5---5-3-5-3-1-----------5---5-3-5-3-1-|
G|--------------------------------------------------|
D|--------------------------------------------------|
A|--------------------------------------------------|
E|--------------------------------------------------|

e|--3-1---1-----------------------------------------|
B|------5---5-3-5-3-1-3-1---1-----------------------|
G|------------------------4---4-2-4-2---2-----------|
D|------------------------------------5---5-3-5-3-2-|
A|--------------------------------------------------|
E|--------------------------------------------------|

e|--------------------------------------------------|-----------|
B|--------------------------------------------------|-----------|
G|--------------------------------------------------|-----------|
D|--3-2---2-----------------------------------------|-----------|
A|------5---5-3-5-3-2-3-2---2-----------2-----------|-----------|
E|------------------------5---5-3-5-3-1---5-3-5-3-1-|--0--------|

e|-------10-13-10----10-7-10-7-------7-10-7---7-4-7-4---|
B|--9-12----------12-----------9-6-9--------9---------6-|
G|------------------------------------------------------|
D|------------------------------------------------------|
A|------------------------------------------------------|
E|------------------------------------------------------|

e|--------------------------------------------------|
B|--6-5-4-5-4-3-4-3-2-3-2-1-------------------------|
G|--------------------------6-5-4-5-4-3-4-3-2-3-2-1-|
D|--------------------------------------------------|
A|--------------------------------------------------|
E|--------------------------------------------------|

e|-------------------------------------------------|
B|-------9-12-9----9-6-9-6-------6-9-6---6-3-6-3---|
G|--7-10--------10---------7---7-------7---------4-|
D|---------------------------9---------------------|
A|-------------------------------------------------|
E|-------------------------------------------------|

e|--------------------------------------------------|
B|--------------------------------------------------|
G|--5-4-3-4-3-2-3-2-1-------------------------------|
D|--------------------7-6-5-6-5-4-5-4-3-4-3-2-3-2-1-|
A|--------------------------------------------------|
E|--------------------------------------------------|

e|-------------------------------------------------|
B|-------------------------------------------------|
G|-------------------------------------------------|
D|-------10-4-7-10-4-7-10-4-7-10-4-7-10-4-7-10-4-7-|
A|-------------------------------------------------|
E|--2----------------------------------------------|

e|--------------------------------------------------|
B|--------------------------------------------------|
G|--8-2-5-8-2-5-8-2-5-8-2-5-8-2-5-8-2-5-8-2-5-8-2-5-|
D|--------------------------------------------------|
A|--------------------------------------------------|
E|--------------------------------------------------|

e|--------------------------------------------------|----------------------------|
B|--9-3-6-9-3-6-9-3-6-9-3-6-9-3-6-9-3-6-9-3-6-9-3-6-|----------------------------|
G|--------------------------------------------------|-------------------7--4-----|
D|--------------------------------------------------|----------------6--------6--|
A|--------------------------------------------------|-------------5--------------|
E|--------------------------------------------------|--4----0--4-----------------|

e|---------------|-----------------12----|--13------12-10-12--------|
B|---------------|-----------10----------|--------------------------|
G|---------------|------9----------------|--------------------------|
D|---------------|-----------------------|--------------------------|
A|--5------------|-----------------------|--------------------------|
E|-----4--0------|-----------------------|--------------------------|

e|-------------------12--|--12-----10-12-10-8-10--------|-------------------7--|
B|-----------10----------|------------------------------|-----------10---------|
G|------9----------------|------------------------------|------9---------------|
D|-----------------------|------------------------------|----------------------|
A|-----------------------|------------------------------|----------------------|
E|-----------------------|------------------------------|----------------------|

e|--8------7------------|----------------------|-------------------------|
B|-----------8----------|-----------9----------|-------------------------|
G|-------------9--------|--7---------------10--|--9------------9---------|
D|----------------------|----------------------|-----------------10----7-|
A|----------------------|----------------------|--------------------10---|
E|----------------------|----------------------|-------------------------|

e|------------------12----|--13-----12-13-12-10-12--------|
B|------------10----------|-------------------------------|
G|-------9----------------|-------------------------------|
D|------------------------|-------------------------------|
A|--7---------------------|-------------------------------|
E|------------------------|-------------------------------|

e|-------------------12--|--12-----10-12-10-8-10--------|-------------------7--|
B|-------------10--------|------------------------------|-----------10---------|
G|------9----------------|------------------------------|------9---------------|
D|-----------------------|------------------------------|----------------------|
A|-----------------------|------------------------------|----------------------|
E|-----------------------|------------------------------|----------------------|

e|--8------7------------|---------------------|-------------------|
B|-----------8----------|-----------9------6--|-------------------|
G|-------------9--------|--7------------------|--9----------------|
D|----------------------|---------------------|-------------------|
A|----------------------|---------------------|-------------------|
E|----------------------|---------------------|-------------------|

e|------------------14----|--15------14-12-14--------|------------------14----|
B|------------12----------|--------------------------|------------12----------|
G|------11----------------|--------------------------|------11----------------|
D|------------------------|--------------------------|------------------------|
A|------------------------|--------------------------|------------------------|
E|------------------------|--------------------------|------------------------|

e|--14-----12-14-12-10-12--------|------------------------|
B|-------------------------------|------------12----14----|
G|-------------------------------|------11----------------|
D|-------------------------------|------------------------|
A|-------------------------------|------------------------|
E|-------------------------------|------------------------|

e|--------------------------|----------------------|----------------------|
B|--15------14--------------|-----------10------8--|--7------------7------|
G|-------------14-11--------|--9-------------------|-----------------7----|
D|--------------------------|----------------------|-------------------7--|
A|--------------------------|----------------------|----------------------|
E|--------------------------|----------------------|----------------------|

e|-------------------14----|--15--15----14-12-14--------|--------------------14--|
B|-------------12----------|----------------------------|------------12----------|
G|-------11----------------|----------------------------|------11----------------|
D|-------------------------|----------------------------|------------------------|
A|--9----------------------|----------------------------|------------------------|
E|-------------------------|----------------------------|------------------------|

e|--14-----12-14-12-10-12--------|------------------------|
B|-------------------------------|------------12----14----|
G|-------------------------------|------11----------------|
D|-------------------------------|------------------------|
A|-------------------------------|------------------------|
E|-------------------------------|------------------------|

e|--------------------------|----------------------|-----------|
B|--15------14--------------|-----------10------8--|--7--------|
G|-------------14-11--------|--9-------------------|-----------|
D|--------------------------|----------------------|-----------|
A|--------------------------|----------------------|-----------|
E|--------------------------|----------------------|-----------|

e|--------0--9-------------------15------|
B|---------------------------11------12--|
G|--------------10--------7--------------|
D|------------------7--------------------|
A|-----1---------------8-----------------|
E|--2------------------------------------|

e|----------------------------------------------|
B|--9-12----12---12---12----12---12----12----12-|
G|-------11----9----8---------------------------|
D|-----------------------11----9----------------|
A|----------------------------------12----11----|
E|----------------------------------------------|

e|------------------------------------------|----------------------------------|
B|--7-10---10---10---10---10---10---10---10-|--5-9---9---9---9---9---9---9---9-|
G|-------9----8----6------------------------|------8---6---4-------------------|
D|----------------------9----7----5----7----|------------------7---6---5---6---|
A|------------------------------------------|----------------------------------|
E|------------------------------------------|----------------------------------|

e|----------------------------------|--------4-7-4-----------4-7-4-----|
B|--4-7---7---7---7---7---7---7---7-|--5---5-------5---5---5-------5---|
G|------6---4-----------------------|----4-----------4---4-----------4-|
D|--------------7---5---4---3---4---|----------------------------------|
A|----------------------------------|----------------------------------|
E|----------------------------------|----------------------------------|

e|--7-4-5---4-------9----7------------|--11-7-9----7-9-11-7-12-7-------------|
B|--------7---5-7-4---10---9-10-7-9---|---------10---------------9-----------|
G|----------------------------------9-|----------------------------9---------|
D|------------------------------------|------------------------------9-------|
A|------------------------------------|--------------------------------11-7--|
E|------------------------------------|--------------------------------------|

e|-----------------11-12-|--12-17----17----17----17----17----17----17----17-|
B|------------9-12-------|--------13----------------------------------13----|
G|----------9------------|--------------14----------------------14----------|
D|--------9--------------|--------------------14----------14----------------|
A|-----11----------------|--------------------------15----------------------|
E|--12-------------------|--------------------------------------------------|

e|-----15----15----15----15----15----15----15----15-|
B|--15----12----------------------------------12----|
G|--------------12----------------------12----------|
D|--------------------12----------12----------------|
A|--------------------------14----------------------|
E|--------------------------------------------------|

e|-----13----13----13----13----13----13----13----13-|
B|--13----10----------------------------------10----|
G|--------------10----------------------10----------|
D|--------------------10----------10----------------|
A|--------------------------12----------------------|
E|--------------------------------------------------|

e|----------------------------10----|-----12----17-12--------------------------|
B|--12-9-------13b-------9-12----12-|--------13-------13-10--------------------|
G|-------10-------------------------|--14-------------------9------------------|
D|----------12----------------------|-------------------------10-7-----------7-|
A|----------------------------------|------------------------------7-------7---|
E|----------------------------------|--------------------------------8-5-8-----|

e|------------------10-10------------------|
B|---------------10-------10---------------|
G|----------7-10-------------10-7----------|
D|--------7-----------------------7--------|
A|--8-5-8---------------------------8------|
E|------------------------------------10-8-|

e|-------------7-10-15-10------------------|
B|-----------8------------12---------------|
G|---------7-----------------12------------|
D|-------9----------------------12-9----9--|
A|----10-----------------------------10----|
E|--7--------------------------------------|

e|--------------12-15-20-15-19-17-15----------------|
B|-----------13----------------------18-17-15-------|
G|--------12----------------------------------16----|
D|--10-14----------------------------------------17-|
A|--------------------------------------------------|
E|--------------------------------------------------|

e|------------------------------------------|
B|-------12-13-12---------------------------|
G|--14------------14-12------12-14-12-------|
D|----------------------15------------15-14-|
A|------------------------------------------|
E|------------------------------------------|

e|---------------------------------------------|
B|----------12-------------13----13----13---13-|
G|--12---14----14-12---------------------------|
D|-------------------15-14----12----10----9----|
A|---------------------------------------------|
E|---------------------------------------------|

e|------------------------------------------|
B|-------12-13-12---------------------------|
G|--14------------14-12------12-14-12-------|
D|----------------------15------------15-14-|
A|------------------------------------------|
E|------------------------------------------|

e|----------------------------------------|--------------------|
B|----------12-------------13----13-------|--13b---------------|
G|--12---14----14-12----------------------|--------------------|
D|-------------------15-14----12----14----|--------------------|
A|----------------------------------------|--------------------|
E|----------------------------------------|--------------------|

e|--------------------|--------------12--12---14-|--15------------------|
B|--14b---------------|--15b---------------------|------13--------------|
G|--------------------|--------------------------|----------------------|
D|--------------------|--------------------------|----------------------|
A|--------------------|--------------------------|----------------------|
E|--------------------|--------------------------|----------------------|

e|--------------------|------------11----------------|
B|--13b---------------|--14b-------------12----14----|
G|--------------------|------------------------------|
D|--------------------|------------------------------|
A|--------------------|------------------------------|
E|--------------------|------------------------------|

e|------------------------------|--------11--------------------|
B|--12--15b---------12--12--12--|--13-------13-----------------|
G|------------------------------|--------------12--------------|
D|------------------------------|-----------------13-10--------|
A|------------------------------|------------------------------|
E|------------------------------|------------------------------|

e|------------------------|--------------------|-------------------------------|
B|--11--------14----------|--11----------------|--14--------17--14-17-14-11----|
G|------------------12----|--------------------|-------------------------------|
D|------------------------|--------------------|-------------------------------|
A|------------------------|--------------------|-------------------------------|
E|------------------------|--------------------|-------------------------------|

e|--------------------|--12--------15--12-15-12---------------------|
B|--15----------------|-------------------------13--17--13-17-13----|
G|--------------------|------------------------------------------15-|
D|--------------------|---------------------------------------------|
A|--------------------|---------------------------------------------|
E|--------------------|---------------------------------------------|

e|--------------------------------|--------------------------------|
B|--------------------------------|--------------------------------|
G|--15--14------15----14----12----|--11------------11--11--12--14--|
D|--------------------------------|--------------------------------|
A|--------------------------------|--------------------------------|
E|--------------------------------|--------------------------------|

e|------------------------|----------------------------------|
B|------------------------|----------------------------------|
G|------------------------|----------------------------------|
D|--11--------------------|--------------------------11--12--|
A|------------13----------|--------14--------14--14----------|
E|--------------------14--|--14------------------------------|

e|----------------------|----------------------------------|
B|----------------------|----------------------------------|
G|----------------------|--11--------------11--11--12--14--|
D|--12------------------|--------------12------------------|
A|--------10------------|----------------------------------|
E|----------------------|----------------------------------|

e|----------------------------------|----------------------------------|
B|----------------------------------|----------------------12--14--12b-|
G|--14b-----14--12--11--12--11------|--11------11----------------------|
D|------------------------------12--|------12--------------------------|
A|----------------------------------|----------------------------------|
E|----------------------------------|----------------------------------|

e|--------9--------------------|------------------------|
B|-----------12----------------|------------------------|
G|---------------12----11--12--|--11--------------------|
D|-----------------------------|------------------------|
A|-----------------------------|------------------------|
E|-----------------------------|------------------------|

e|-------------------------|-----7--7--------12--7-----|
B|----------------8--8-----|-----------8------------8--|
G|----9--9--------------9--|--9-----------9------------|
D|----------9--9-----------|---------------------------|
A|-------------------------|---------------------------|
E|-------------------------|---------------------------|

e|-----------------------------|--------------------------------|
B|-----------------------------|------7--7--------10--7-10-7----|
G|-------------------8--8------|------------8--8-------------8--|
D|-----10--10--7--7--------10--|--10----------------------------|
A|--9--------------------------|--------------------------------|
E|-----------------------------|--------------------------------|

e|--------------------------|-----7--7--------8--7-8-7-6--|
B|-----------------9--9-----|-----------9--9--------------|
G|-----9--9--------------9--|--9--------------------------|
D|-----------9--9-----------|-----------------------------|
A|--7-----------------------|-----------------------------|
E|--------------------------|-----------------------------|

e|--5--8--8--------5--5-----|--------------------------|
B|-----------5--5-----------|-----5--5-----------------|
G|-----------------------5--|--5--------------5--------|
D|--------------------------|-----------7--7-----7-----|
A|--------------------------|-----------------------7--|
E|--------------------------|--------------------------|

e|--------------------------|-----------------5--------|
B|--------------------------|-----7--7-----------7-----|
G|-----------------7--7-----|-----------7--7--------7--|
D|-----7--7--4--4--------7--|--7-----------------------|
A|--5-----------------------|--------------------------|
E|--------------------------|--------------------------|

e|--------------------------|--------------9--6--------------|
B|-----8--8-----------------|-----------8--------8--5--------|
G|-----------7--7-----------|-----6--9-----------------6-----|
D|--8--------------8--8--5--|--8--------------------------8--|
A|--------------------------|--------------------------------|
E|--------------------------|--------------------------------|

e|----------------------|----------------------|----------------------|
B|----------------------|----------------------|----------------------|
G|----------------------|--6----------6-----6--|--7----------7--6--7--|
D|--7----------7--6--7--|----------------8-----|----------------------|
A|----------------------|----------------------|----------------------|
E|----------------------|----------------------|----------------------|

e|-------------------||---13--10--------------10--15--10--15--10------10--|
B|-------------------||-----------10------10----------------------11------|
G|--7b---------------||*--------------10----------------------------------|
D|-------------------||*--------------------------------------------------|
A|-------------------||---------------------------------------------------|
E|-------------------||---------------------------------------------------|

e|--13--10--------------10--15--10--15--10------10--|
B|----------10------10----------------------11------|
G|--------------10----------------------------------|
D|--------------------------------------------------|
A|--------------------------------------------------|
E|--------------------------------------------------|

e|--13--10---------------------10-13-10-13-10----10-|
B|----------12--9---------9-12----------------12----|
G|----------------10-7-10---------------------------|
D|--------------------------------------------------|
A|--------------------------------------------------|
E|--------------------------------------------------|

e|--14--10------------------------11-14-11-14-11----11--||
B|----------13--10----------10-13----------------13-----||
G|-----------------11----11----------------------------*||
D|--------------------13-------------------------------*||
A|------------------------------------------------------||
E|------------------------------------------------------||

e|--15--12------------------------12-15-12-15-12----12-|
B|----------14--11----------11-14----------------14----|
G|-----------------12----12----------------------------|
D|--------------------14-------------------------------|
A|-----------------------------------------------------|
E|-----------------------------------------------------|

e|--16--13------------------------13-15-13-16-13----13-|--13b---13--13----------|
B|----------15--12----------12-15----------------15----|------------------------|
G|-----------------13----13----------------------------|------------------------|
D|--------------------15-------------------------------|------------------------|
A|-----------------------------------------------------|------------------------|
E|-----------------------------------------------------|------------------------|

e|----------------------------------|----------------------------------|
B|--6-5---8---6-5-------5-----------|--6-5---8---6-5-------5-----------|
G|------7---7-----7-5-7---5-7-5-----|------7---7-----7-5-7---5-7-5-----|
D|------------------------------8-7-|------------------------------8-7-|
A|----------------------------------|----------------------------------|
E|----------------------------------|----------------------------------|

e|----------------------------------|----------------------------------|
B|--5-----6---5---------------------|--5-----6---5---------------------|
G|----7-5---5---7-5---5-7---5-------|----7-5---5---7-5---5-7---5-------|
D|------------------8-----8---8-7-5-|------------------8-----8---8-7-5-|
A|----------------------------------|----------------------------------|
E|----------------------------------|----------------------------------|

e|----------------------------------|----------------------------------|
B|----------------------------------|----------------------------------|
G|--7-5---8---7-5-------5-----------|--7-5---8---7-5-------5-----------|
D|------8---8-----8-7-8---7-8-7-5---|------8---8-----8-7-8---7-8-7-5---|
A|--------------------------------8-|--------------------------------8-|
E|----------------------------------|----------------------------------|

e|----------------------|-----------------------|
B|----------------------|-----------------------|
G|--8--------10----8----|--8------10-8-7--------|
D|----------------------|-----------------------|
A|----------------------|-----------------------|
E|----------------------|-----------------------|

e|----------------------------------|----------------------------------|
B|----------------------------------|----------------------------------|
G|----------------------------------|----------------------------------|
D|------4-----4-----4-----4-----4---|------3-----3-----3-----3-----3---|
A|--5-5---5-5---5-5---5-5---5-5---5-|--4-4---4-4---4-4---4-4---4-4---4-|
E|----------------------------------|----------------------------------|

e|----------------------------------|----------------------------------|
B|----------------------------------|----------------------------------|
G|----------------------------------|----------------------------------|
D|------2-----2-----2-----2-----2---|----------------------------------|
A|--3-3---3-3---3-3---3-3---3-3---3-|--1-1-5-1-1-1-5-1-1-1-5-1-1-1-5-1-|
E|----------------------------------|----------------------------------|

e|--------------------------------------|--------------------------------------|
B|--------------------------------------|--------------------------------------|
G|--8-8-11-8-8-8-11-8-8-8-11-8-8-8-11-8-|--9-9-12-9-9-9-12-9-9-9-12-9-9-9-12-9-|
D|--------------------------------------|--------------------------------------|
A|--------------------------------------|--------------------------------------|
E|--------------------------------------|--------------------------------------|

e|--------------------------------------------------|
B|--------------------------------------------------|
G|--11-11-14-11-11-11-14-11-11-11-14-11-11-11-14-11-|
D|--------------------------------------------------|
A|--------------------------------------------------|
E|--------------------------------------------------|

e|--------------------------------------------------|
B|--------------------------------------------------|
G|--12-12-16-12-12-12-16-12-12-12-16-12-12-12-16-12-|
D|--------------------------------------------------|
A|--------------------------------------------------|
E|--------------------------------------------------|

e|--------------------------------------------------|
B|--------------------------------------------------|
G|--14-14-17-14-14-14-17-14-14-14-17-14-14-14-17-14-|
D|--------------------------------------------------|
A|--------------------------------------------------|
E|--------------------------------------------------|

e|--------------------------------------------------|
B|--12-12-15-12-12-12-15-12-12-12-15-12-12-12-15-12-|
G|--------------------------------------------------|
D|--------------------------------------------------|
A|--------------------------------------------------|
E|--------------------------------------------------|

e|--------------------------------------------------|
B|--13-13-17-13-13-13-17-13-13-13-17-13-13-13-17-13-|
G|--------------------------------------------------|
D|--------------------------------------------------|
A|--------------------------------------------------|
E|--------------------------------------------------|

e|--14--11-14-11----------------------|
B|---------------12-------------------|
G|-------------------11---------------|
D|-----------------------13-----------|
A|---------------------------14-------|
E|-------------------------------x----|

e|--------------------------------------------------|
B|--13-10-10-13-10-10-13-10-10-13-10-10-13-10-10-10-|
G|--------------------------------------------------|
D|--------------------------------------------------|
A|--------------------------------------------------|
E|--------------------------------------------------|

e|---------------------------------------|---------------------------------------|
B|--12-8-8-12-8-8-12-8-8-12-8-8-12-8-8-8-|--10-7-7-10-7-7-10-7-7-10-7-7-10-7-7-7-|
G|---------------------------------------|---------------------------------------|
D|---------------------------------------|---------------------------------------|
A|---------------------------------------|---------------------------------------|
E|---------------------------------------|---------------------------------------|

e|-------------------------------|
B|--8-7--------8-7---------------|
G|------9-8-9------9-8-9--9-8-9--|
D|-------------------------------|
A|-------------------------------|
E|-------------------------------|

e|--------------------------------------------------|
B|--13-10-10-13-10-10-13-10-10-13-10-10-13-10-10-10-|
G|--------------------------------------------------|
D|--------------------------------------------------|
A|--------------------------------------------------|
E|--------------------------------------------------|

e|--------------------------------------------------|
B|--17-13-13-17-13-13-17-13-13-17-13-13-17-13-13-13-|
G|--------------------------------------------------|
D|--------------------------------------------------|
A|--------------------------------------------------|
E|--------------------------------------------------|

e|----------------------------------------------|-------------------------------|
B|--16--13-16-13-10--13--10-13-10-7--10--7-10-7-|--4--7--4-7-4-1--4--1-4-1------|
G|----------------------------------------------|--------------------------4----|
D|----------------------------------------------|-------------------------------|
A|----------------------------------------------|-------------------------------|
E|----------------------------------------------|-------------------------------|

e|----------------------|---------------------|----------------------|
B|----------------------|---------------------|----------------------|
G|*----------------2----|---------------------|----------------------|
D|*--3--------5---------|--5------2-----------|--2-------------------|
A|----------------------|------------3--------|-------5----3----2----|
E|----------------------|---------------------|----------------------|

e|--------------12-15-14-15-13-15-12-15----15----15--||
B|----------13--------------------------15----13-----||
G|------12------------------------------------------*||
D|--14----------------------------------------------*||
A|---------------------------------------------------||
E|---------------------------------------------------||

e|----------------------------------|----------------------------------|
B|--0-0-1-0-0-3-0-0-5-0-0-3-0-0-1-0-|--0-0-1-0-0-3-0-0-5-0-0-3-0-0-1-0-|
G|----------------------------------|----------------------------------|
D|----------------------------------|----------------------------------|
A|----------------------------------|----------------------------------|
E|----------------------------------|----------------------------------|

e|----------------5----|---------------------|
B|--6--------8---------|--8------5-----------|
G|---------------------|------------5--------|
D|---------------------|---------------------|
A|---------------------|---------------------|
E|---------------------|---------------------|

e|--8-10-8-10-7-8-7-8-5-7-5-7-3-5-3-5-|--------------------------|
B|------------------------------------|--6--------6----5----3----|
G|------------------------------------|--------------------------|
D|------------------------------------|--------------------------|
A|------------------------------------|--------------------------|
E|------------------------------------|--------------------------|

e|----------------------|---------------------|--4-1-------1-4-1-7-4-------4-7-4-|
B|------------5----6----|--5------------------|------3---3-----------6---6-------|
G|--7------4------------|---------5-----------|--------4---------------7---------|
D|----------------------|------------7--------|----------------------------------|
A|----------------------|---------------------|----------------------------------|
E|----------------------|---------------------|----------------------------------|

e|--10-7--------7-10-7-10b-------|
B|-------9----9------------------|
G|---------10--------------------|
D|-------------------------------|
A|-------------------------------|
E|-------------------------------|

e|-----------10-12-10----------13-12-10-12-10-------|
B|--10-12-13----------13-12-10----------------13-12-|
G|--------------------------------------------------|
D|--------------------------------------------------|
A|--------------------------------------------------|
E|--------------------------------------------------|

e|-----------10-12-10----------13-12-10-12-10-------|
B|--10-12-13----------13-12-10----------------13-12-|
G|--------------------------------------------------|
D|--------------------------------------------------|
A|--------------------------------------------------|
E|--------------------------------------------------|

e|--------------10-------------12-10----10----------|
B|-----10-12-13----13-12-10----------13----13-12-10-|
G|--12----------------------12----------------------|
D|--------------------------------------------------|
A|--------------------------------------------------|
E|--------------------------------------------------|

e|--------------10-------------12-10----10----------|
B|-----10-12-13----13-12-10----------13----13-12-10-|
G|--12----------------------12----------------------|
D|--------------------------------------------------|
A|--------------------------------------------------|
E|--------------------------------------------------|

e|-----12-10----10----------------------------------|
B|-----------13----13-12-13-12-10-12-10----10-------|
G|--12----------------------------------12----12-10-|
D|--------------------------------------------------|
A|--------------------------------------------------|
E|--------------------------------------------------|

e|--------------------------------------------|
B|--------------------------------------------|
G|--12-10-9-10-9----9-------------------------|
D|---------------12---12-10-12-10-9-10-9----9-|
A|---------------------------------------12---|
E|--------------------------------------------|

e|-----------------------------------------|
B|---------------------9-------9-------9---|
G|------------------10------10------10-----|
D|-----9-12----9-12------12------12--------|
A|--11------11-----------------------------|
E|-----------------------------------------|

e|----------------------------------------13-16-|
B|--15---12-------------12----------12-15-------|
G|-------------------13----13----13-------------|
D|----------15-12-15----------15----------------|
A|----------------------------------------------|
E|----------------------------------------------|

e|--17-12-13-12----12-13-12-17-12-13-12----12-13-12-|
B|--------------13----------------------13----------|
G|--------------------------------------------------|
D|--------------------------------------------------|
A|--------------------------------------------------|
E|--------------------------------------------------|

e|--17-12-13-12----12-13-12-17-12-13-12----12-13-12-|
B|--------------13----------------------13----------|
G|--------------------------------------------------|
D|--------------------------------------------------|
A|--------------------------------------------------|
E|--------------------------------------------------|

e|--15-10-12-10----10-12-10-15-10-12-10----10-12-10-|
B|--------------12----------------------12----------|
G|--------------------------------------------------|
D|--------------------------------------------------|
A|--------------------------------------------------|
E|--------------------------------------------------|

e|--15-10-12-10----10-12-10-15-10-12-10----10-12-10-|
B|--------------12----------------------12----------|
G|--------------------------------------------------|
D|--------------------------------------------------|
A|--------------------------------------------------|
E|--------------------------------------------------|

e|--15-12-----------15-12----------12-15-12-----|
B|--------13-----13-------13----13----------13--|
G|------------12-------------12-----------------|
D|----------------------------------------------|
A|----------------------------------------------|
E|----------------------------------------------|

e|--------15-12-----------------------|
B|-----13-------13--------------------|
G|--12-------------12-----------------|
D|--------------------14--------------|
A|-----------------------15-----------|
E|--------------------------12--------|

e|--------------------------------------------------|
B|--------------------------------------------12-15-|
G|-----------------------13-------13-------13-------|
D|--------12-------12-15----12-15----12-15----------|
A|--11-14----11-14----------------------------------|
E|--------------------------------------------------|

e|--13----------------------------------------13-16-|--14b---------------|
B|-----15-12----------------12----------12-15-------|--------------------|
G|-----------13----------13----13----13-------------|--------------------|
D|--------------15-12-15----------15----------------|--------------------|
A|--------------------------------------------------|--------------------|
E|--------------------------------------------------|--------------------|

e|--12----17----12---------------------|---------------------------|
B|--------------------13----10---------|---------------------------|
G|--------------------------------9----|---------------------------|
D|-------------------------------------|--10----7------------------|
A|-------------------------------------|-------------7-------------|
E|-------------------------------------|------------------8--------|

e|--------------------5--8--|--12--8----------------------|
B|-----------------5--------|---------10------------------|
G|--------------5-----------|-------------9---------------|
D|-----------7--------------|----------------10--7--------|
A|--------7-----------------|-----------------------7-----|
E|--5--8--------------------|--------------------------8--|

e|--------------------5--8--|--12--8----------------------|
B|-----------------5--------|---------10------------------|
G|--------------5-----------|-------------9---------------|
D|-----------7--------------|----------------10--7--------|
A|--------7-----------------|-----------------------7-----|
E|--5--8--------------------|--------------------------8--|

e|--------------------5--8--|--17--12--------------------------------------12--|
B|-----------------5--------|----------13------------------------------13------|
G|--------------5-----------|--------------14----------------------14----------|
D|-----------7--------------|------------------14--------------14--------------|
A|--------7-----------------|----------------------15--12--15------------------|
E|--5--8--------------------|--------------------------------------------------|

e|--------------------5--8--|--12-10-8---------------------------------|
B|-----------------5--------|----------12-10-8-------------------------|
G|--------------5-----------|------------------10-9-7------------------|
D|-----------7--------------|-------------------------10-9-7-----------|
A|--------7-----------------|--------------------------------10-8-7----|
E|--5--8--------------------|---------------------------------------10-|

e|---------------------------|--------------------------------|
B|---------------------------|--------------------------------|
G|---------------------7--9--|--10--9-10-9-7------------------|
D|---------------7--9--------|----------------9--7------------|
A|---------7--8--------------|----------------------8--7------|
E|--7--10--------------------|----------------------------10--|

e|--------------------------|----------------------------|
B|--------------------------|----------------13--10------|
G|-----------------------7--|--9--10--9--10--------------|
D|-----------------7--9-----|----------------------------|
A|-----7--8--7--8-----------|----------------------------|
E|--7-----------------------|----------------------------|

e|---------------------------|--------------------------------|
B|---------------------------|--------------------------------|
G|---------------------7--9--|--10--9-10-9-7------------------|
D|---------------7--9--------|----------------9--7------------|
A|---------7--8--------------|----------------------8--7------|
E|--7--10--------------------|----------------------------10--|

e|--------------------------|----------------------------|
B|--------------------------|----------------13--10------|
G|-----------------------7--|--9--10--9--10--------------|
D|-----------------7--9-----|----------------------------|
A|-----7--8--7--8-----------|----------------------------|
E|--7-----------------------|----------------------------|

e|--------------------5--8--|--12--8----------------------|
B|-----------------5--------|---------10------------------|
G|--------------5-----------|-------------9---------------|
D|-----------7--------------|----------------10--7--------|
A|--------7-----------------|-----------------------7-----|
E|--5--8--------------------|--------------------------8--|

e|--------------------5--8--|--12--8----------------------|
B|-----------------5--------|---------10------------------|
G|--------------5-----------|-------------9---------------|
D|-----------7--------------|----------------10--7--------|
A|--------7-----------------|-----------------------7-----|
E|--5--8--------------------|--------------------------8--|

e|--------------------5--8--|--17--12--------------------------------------12--|
B|-----------------5--------|----------13------------------------------13------|
G|--------------5-----------|--------------14----------------------14----------|
D|-----------7--------------|------------------14--------------14--------------|
A|--------7-----------------|----------------------15--12--15------------------|
E|--5--8--------------------|--------------------------------------------------|

e|--------------------5--8--|--12-10-8---------------------------------|
B|-----------------5--------|----------12-10-8-------------------------|
G|--------------5-----------|------------------10-9-7------------------|
D|-----------7--------------|-------------------------10-9-7-----------|
A|--------7-----------------|--------------------------------10-8-7----|
E|--5--8--------------------|---------------------------------------10-|

e|-----------------------|-----------------------|-----------------------|
B|-----------------------|-----------------------|-----------------------|
G|-----------------------|-----------------------|-----------------------|
D|--------------8--------|--------------2--------|--------------8--------|
A|--0--0--0--0--6--------|--0--0--0--0--2--------|--0--0--0--0--6--------|
E|-----------------------|--------------0--------|-----------------------|

e|-----------------------|--------------------------|-----------------------|
B|-----------------------|--------------------------|-----------------------|
G|-----------------------|--------------------------|-----------------------|
D|--------------2--------|--------------------------|-----------------------|
A|--0--0--0--0--2--------|--------------------------|--------------8--------|
E|--------------0--------|--0--0--0--0--0--0--0--0--|--0--0--0--0--6--------|

e|--------------------------|-----------------------|--------------------------|
B|--------------------------|-----------------------|--------------------------|
G|--------------------------|-----------------------|--------------------------|
D|--------------------------|-----------------------|--------------------------|
A|--------------------------|--------------8--------|--------------------------|
E|--0--0--0--0--0--0--0--0--|--0--0--0--0--6--------|--0--0--0--0--0--0--0--0--|

e|-----------------------|--------------------------|-----------------------|
B|-----------------------|--------------------------|-----------------------|
G|-----------------------|--------------------------|-----------------------|
D|-----------------------|--------------------------|-----------------------|
A|--------------8--------|--------------------------|--------------7--------|
E|--0--0--0--0--6--------|--0--0--0--0--0--0--0--0--|--0--0--0--0--5--------|

e|------------------------------------|-----------------------------------|
B|------------------------------------|-----------------------------------|
G|*-----------------------------------|-----------------------------------|
D|*--2----2--2--2--2----2--2--2--3----|--2----2--2--2--2----2--2--2--8----|
A|---2----2--2--2--2----2--2--2--3----|--2----2--2--2--2----2--2--2--6----|
E|---0----0--0--0--0----0--0--0--1----|--0----0--0--0--0----0--0--0-------|

                                                        3x
e|-----------------------------------|------------------||----||
B|-----------------------------------|------------------||----||
G|-----------------------------------|-----------------*||----||
D|--2----2--2--2--2----2--2--2--3----|--2--4--1--3--1--*||----||
A|--2----2--2--2--2----2--2--2--3----|--2--4--1--3--1---||----||
E|--0----0--0--0--0----0--0--0--1----|------------------||----||



************************************

| *  Natural harmonic
| x  Dead note
| /  Slide up
| b  Bend
| r  Release
| ~  Vibrato

************************************

            
            
Suggest correction
Creating personal tab
Creating personal tab
You can edit any tab online and save it as your Personal.

You can edit, replace or remove any tab part or add personal notes – all changes will be seen only by you.

Personal tabs can be accessed anytime from any device, even offline.
Learn more »
comments
print report bad tab
21 comments total. Showing first comments.
+1 reply
Encore_God 30 Oct 30, 2003 07:00 PM

I've been searching for absolutely ages for a tab of this song!

I'll try it in about 15 years and see how it plays :p

Good job man...

+4 reply
lilmonkeyman134 20 Jul 14, 2004 08:00 PM

that just may be the longest tab i have ever seen

0 reply
Guitar328 20 Jul 23, 2004 08:00 PM

ok im gonna slow the song down and try to play it :P lol

guest
You may want to rate the tab now too:
select rating
Wanna post a correction for this tab? Suggest correction