Oops, an error
Loading. Please wait.

Culpables bass

53 views 1 this week
no commentswrite comment
1 2 3 4 5
3 more votes to show rating
add to favorites
×
Save as Personal and add changes to this tab that will be seen only by you. Learn more ›
×
You can save this tab as Personal to edit and correct it or add notes. All changes will be seen only by you. Learn more »
launch autoscroll
font size
0
reset
guitar tuner
edit
Autoscroll
slow
fast
+/-
esc
set tempo
stop
El tema es bastante fácil como la mayoria de caden..
lo van a sacar al toque


Intro:


G|---------------------------------------------------------|
D|---------------------------------------------------------|
A|-3-3-----------------3-3-------------------3-3-----------|
E|------3-3-3-3-3-3-3---------3-3-3-3-3-3-3----------------|


G|---------------------------------------------------------|
D|---------------------------------------------------------|
A|-----------2-2-2-2-2--------------3-3-3--5-5-5-----------|
E|-3-3-3-3-3-----------0-0-0-0-0-0-------------------------|

     Ya perdi demasiado            para    complacerte
     Es tan facil y tan complicado porque dejo de ser yo

G|---------------------------------------------------------|
D|---------------------------------------------------------|
A|-2-2-2-2-2-----------2-2-2-2-2-2-------------------------|
E|-----------0-0-0-0-0--------------0-0-0-0-0--------------|


  Me transformo en un robot, un robot con corazon


G|---------------------------------------------------------|
D|---------------------------------------------------------|
A|-3-3-3-3-3-0-0-0-0-0--3-3-3--5-5-5-----------------------|
E|---------------------------------------------------------|

   Y que nunca puede     dejar de pensar en vos


G|---------------------------------------------------------|
D|---------------------------------------------------------|
A|-----------2-2-2-2-2--------------3-3-3--5-5-5-----------|
E|-3-3-3-3-3-----------0-0-0-0-0-0-------------------------|

      reprimi mis deseos            para no perderte
    pero el tiempo... fuego         porque el no sabe esperar


G|---------------------------------------------------------|
D|---------------------------------------------------------|
A|-2-2-2-2-2-----------2-2-2-2-2-2-------------------------|
E|-----------0-0-0-0-0--------------0-0-0-0-0--------------|


   y aunque soy .. al fin de     crear tanta ilusion


G|---------------------------------------------------------|
D|---------------------------------------------------------|
A|-3-3-3-3-3-0-0-0-0-0--3-3-3--5-5-5-----------------------|
E|---------------------------------------------------------|

      los dos mentimos solo para amarnos mas


G|---------------------------------------------------------|
D|---------------------------------------------------------|
A|-----------------------------2-2-2-2-2-2-2-2-2-2-2-2-2-2-|
E|-3-3-3-3-3-3-3-3-3-3-3-3-3-------------------------------|


Porque nunca vamos a aprender  Y caemos en el mismo error

G|-------------------------------------------------------------------|
D|-------------------------------------------------------------------|
A|--3-3-3-3-3-3-3-3-3-3-3-3-3-3-3--5-5-5-5-5-5-5-5-5-5-5-5-5-5-5-5-5-|
E|-------------------------------------------------------------------|


Para amar no hay que dejar de ser Ser uno mismo aunque nos cueste el amor

G|---------------------------------------------------------|
D|---------------------------------------------------------|
A|---------------3-3-----------------3-3-------------------|
E|-3-3-3-3-3-3-3-----3-3-3-3-3-3-3-------------------------|


G|---------------------------------------------------------|
D|---------------------------------------------------------|
A|-----------2-2-2-2-2--------------3-3-3--5-5-5-----------|
E|-3-3-3-3-3-----------0-0-0-0-0-0-------------------------|

      ya no estoy a tu lado        para conformarte
      ya entendi  demasiado        siempre va a hacer falta mas

G|---------------------------------------------------------|
D|---------------------------------------------------------|
A|-2-2-2-2-2-----------2-2-2-2-2-2-------------------------|
E|-----------0-0-0-0-0--------------0-0-0-0-0--------------|

   de lo que te puedo dar lo      demas me lo quitas

G|---------------------------------------------------------|
D|---------------------------------------------------------|
A|-3-3-3-3-3-0-0-0-0-0--3-3-3--5-5-5-----------------------|
E|---------------------------------------------------------|

   de un arrebato,     demasiada intimidad.


G|---------------------------------------------------------|
D|---------------------------------------------------------|
A|-----------------------------2-2-2-2-2-2-2-2-2-2-2-2-2-2-|
E|-3-3-3-3-3-3-3-3-3-3-3-3-3-------------------------------|


Porque nunca vamos a aprender  Y caemos en el mismo error

G|-------------------------------------------------------------------|
D|-------------------------------------------------------------------|
A|--3-3-3-3-3-3-3-3-3-3-3-3-3-3-3--5-5-5-5-5-5-5-5-5-5-5-5-5-5-5-5-5-|
E|-------------------------------------------------------------------|


Para amar no hay que dejar de ser Ser uno mismo aunque nos cueste el amor


Estribillo X 2 y final

G|---------------------------------------------------------|
D|---------------------------------------------------------|
A|---------------3-3-----------------3-3-------------------|
E|-3-3-3-3-3-3-3-----3-3-3-3-3-3-3-------------------------|

G|-----------------------------|
D|-----------------------------|
A|---------------3-3-----------|
E|-3-3-3-3-3-3-3-----3-3-------|

            
            
Suggest correction
Creating personal tab
Creating personal tab
You can edit any tab online and save it as your Personal.

You can edit, replace or remove any tab part or add personal notes – all changes will be seen only by you.

Personal tabs can be accessed anytime from any device, even offline.
Learn more »
Give kudos to tab author, rate the tab!
1 2 3 4 5
comments
print report bad tab
guest
Wanna post a correction for this tab? Suggest correction