Oops, an error
Loading. Please wait.

El Sistema/1 bass

35 views 1 this week
no commentswrite comment
1 2 3 4 5
3 more votes to show rating
add to favorites
×
Save as Personal and add changes to this tab that will be seen only by you. Learn more ›
×
You can save this tab as Personal to edit and correct it or add notes. All changes will be seen only by you. Learn more »
launch autoscroll
font size
0
reset
guitar tuner
edit
Autoscroll
slow
fast
+/-
esc
set tempo
stop
Intro

G|-------------------------------------|
D|----------3-3-3-3--------------------| x2
A|-5-5-5-5-----------3-3-3-3--1-1-1-1--|
E|-------------------------------------|

G|-------------------------------------|
D|-------------------------------------| x2
A|----------3-3-3-3--------------------|
E|-5-5-5-5-----------3-3-3-3--1-1-1-1--|

G|-------------------------------------|
D|-------------------------------------|
A|----------3-3-3-3--------------------|
E|-5-5-5-5-----------1-1-1-1--3-3-3-3--|


Pienso, pienso, pienso mas, no encuentro la salida
corro, corro, corro mas y corro para atras
G|-------------------------------------|
D|----------3-3-3-3--------------------| x2
A|-5-5-5-5-----------3-3-3-3--1-1-1-1--|
E|-------------------------------------|

Donde esta el progreso, cuando vemos desempleo?
donde esta el futuro si depende de un buen pasar
G|-------------------------------------|
D|-------------------------------------| x2
A|----------3-3-3-3--------------------|
E|-5-5-5-5-----------3-3-3-3--1-1-1-1--|

Donde esta la dicha? Donde esta el amor?
G|-------------------------------------|
D|-------------------------------------|
A|----------3-3-3-3--------------------|
E|-5-5-5-5-----------1-1-1-1--3-3-3-3--|


Veo a un policia, veo a un criminal (es el sistema de hoy)
veo a un funcionario que me va a estafar (es el sistema de hoy)
veo a un militar, veo tus lagrimas (es el sistema de hoy)
veo que la mierda ya no me deja ver
G|-------------------------------------|
D|-------------------------------------| x4
A|-5-5-5-5--3-3-3-3--------------------|
E|-------------------7-7-7-7--6-6-6-6--|


Pienso, pienso, pienso mas, no alcanzan las neuronas
para comprender que la injusticia sea tan bulgar
G|-------------------------------------|
D|----------3-3-3-3--------------------| x2
A|-5-5-5-5-----------3-3-3-3--1-1-1-1--|
E|-------------------------------------|

hostigando siempre al mas sumiso para dominar
alertando a aquel que como yo no se quiere callar
G|-------------------------------------|
D|-------------------------------------| x2
A|----------3-3-3-3--------------------|
E|-5-5-5-5-----------3-3-3-3--1-1-1-1--|

Donde esta la dicha? Donde esta el amor?
G|-------------------------------------|
D|-------------------------------------|
A|----------3-3-3-3--------------------|
E|-5-5-5-5-----------1-1-1-1--3-3-3-3--|


Esta es la parte donde habla el pibito:

G|-------10-------12-------|-------10-------12--------|
D|-12-12----12-12----12-12-|-10-10----10-10----10-10--|
A|-------------------------|--------------------------|
E|-------------------------|--------------------------|

G|-----10-----12-----|-----9-----10------|
D|-9-9----9-9----9-9-|-8-8---8-8----8-8--|
A|-------------------|-------------------|
E|-------------------|-------------------|
Todo esto lo hace 6 veces


Despues hace esto  (ohhh es el sistema de hoy!)
G|-------------------------------------|
D|-------------------------------------|
A|-5-5-5-5--3-3-3-3--------------------|
E|-------------------7-7-7-7--6-6-6-6--|


Sigo, sigo, sigo igual, peleando desde adentro
esa lucha eterna que empezaron los que hoy no estan,
G|-------------------------------------|
D|----------3-3-3-3--------------------| x2
A|-5-5-5-5-----------3-3-3-3--1-1-1-1--|
E|-------------------------------------|

cuanta gente enferma que te quiere de rodillas
asumiendo un mundo que te ahoga en la mediocridad
G|-------------------------------------|
D|-------------------------------------| x2
A|----------3-3-3-3--------------------|
E|-5-5-5-5-----------3-3-3-3--1-1-1-1--|

Donde esta la dicha? Donde esta el amor?
G|-------------------------------------|
D|-------------------------------------|
A|----------3-3-3-3--------------------|
E|-5-5-5-5-----------1-1-1-1--3-3-3-3--|
Suggest correction
Creating personal tab
Creating personal tab
You can edit any tab online and save it as your Personal.

You can edit, replace or remove any tab part or add personal notes – all changes will be seen only by you.

Personal tabs can be accessed anytime from any device, even offline.
Learn more »
Give kudos to tab author, rate the tab!
1 2 3 4 5
comments
print report bad tab
guest
Wanna post a correction for this tab? Suggest correction