Oops, an error
Loading. Please wait.

Nn Un Jubilado bass

53 views 1 this week
no commentswrite comment
1 2 3 4 5
3 more votes to show rating
add to favorites
×
Save as Personal and add changes to this tab that will be seen only by you. Learn more ›
×
You can save this tab as Personal to edit and correct it or add notes. All changes will be seen only by you. Learn more »
launch autoscroll
font size
0
reset
guitar tuner
edit
Autoscroll
slow
fast
+/-
esc
set tempo
stop
Bueno, otra tablatura subida, en un raye de locura.
Se que hay algunas pequeñas variaciones.
Yo mismo me iba dando cuenta mietnras la iba haciendo,
pero me dio vagancia termianrla al 100%, y por otro lado,
si no dejo ningun detalle, que diversion tiene tocar este tema?
a poner el oido y darle los toques finales a esta tablatura.
:D Saludos.

=====
INTRO
=====
G:|-------------------------------------------------|
D:|------------------------5/7 77 77 77 77 55 44----|
A:|----------------------------------------------77-|
E:| 5 55 55 55 55 55 55 55--------------------------|

=======
VERSO 1
=======
"me estan quitando.."
G:|------------------------------------ 14 ------------|
D:|14/16~  16 ------------ 14 -- 14  16 -- 16 14 -- 14-|
A:|15/17   17 14~ 14 16 16 -- 16 --------------- 16 ---|
E:|---------- 15  15 17 -------------------------------|

"solo fue un prestamo..
G:|------------- 14 ------------------------|
D:|16~ 16 17  16 -- 16 14 -- 14 16 14 -- 14-|
A:|17 ------------------- 16 -------- 16 ---|
E:|-----------------------17----------------|

"hoy formo parte..
G:|---------------------------------------------------|
D:|16~ 16 14 -- 14 -----------------------------------|
A:|17  17 16 16 -- 17 16~   14 -----------------------|
E:|------------------ 17    15 5 55 55 55 55 55 55 55-|


"parece que perdi.."
G:|------------------------------------ 14 ------------|
D:|14/16~  16 ------------ 14 -- 14  16 -- 16 14 -- 14-|
A:|15/17   17 14~ 14 16 16 -- 16 --------------- 16 ---|
E:|---------- 15  15 17 -------------------------------|

"hay que seguir.."
G:|------------- 14 ------------------------|
D:|16~ 16 17  16 -- 16 14 -- 14 16 14 -- 14-|
A:|17 ------------------- 16 -------- 16 ---|
E:|-----------------------------------------|

"y la verdad me.."
G:|---------------------------------------------------|
D:|16~ 16 14 -- 14 -----------------------------------|
A:|17  17 16 16 -- 17 16~   14 -----------------------|
E:|------------------ 17    15 5 55 55 55 55 55 55 55-|

==========
ESTRIBILLO
==========
"yo tengo fuerzas.."
G:|------------- 7--------------------|
D:|--- 4 ------- 5-------- 45 4-------|
A:|5 5 - 7 5 7 ---------------- 7 5 7-|
E:|----------- 3 - 0 55555 -----------|

"aunque me saquen.."
G:|------------- 7--------------------|
D:|--- 4 ------- 5-------- 45 4-------|
A:|5 5 - 7 5 7 ---------------- 7 5 7-|
E:|----------- 3 - 0 55555 -----------|

"yo tengo fuerzas.."
G:|------------- 7--------------------|
D:|--- 4 ------- 5-------- 45 4-------|
A:|5 5 - 7 5 7 ---------------- 7 5 7-|
E:|----------- 3 - 0 55555 -----------|

"no me veran"
G:|------------------------------------------------|
D:|------------------------------------------------|
A:|------------------------------------------------|
E:|2 222 2 2 3 333 3 33 5 55555 555 555 555 555 55-|

"me mantienen.."
G:|------------------------------------------------|
D:|------------------------------------------------|
A:|5~~         5~~         5~~         5555 555555-|
E:|------------------------------------------------|

=======
VERSO 2
=======
G:|--------------------- 14 14 1414 16 14 ----- 14-------|
D:|----------- 14 16~ 16 ---------------- 14 16 -- 16 14-|
A:|---- 14~ 15    17 ------------------------------------|
E:|5 /  15-----------------------------------------------|


"solo pretendo.."
G:|-------------------------------------------|
D:|16~ ------ 14 16~  ------------------------|
A:|17  14~ 15    17   -------------------5~~ -|
E:|--- 15-------------5 555555 5555 5555------|

"y ahora que es lo que paso.."
G:|--------------------- 14 14 1414 16 14 ----- 14-------|
D:|----------- 14 16~ 16 ---------------- 14 16 -- 16 14-|
A:|---- 14~ 15    17 ------------------------------------|
E:|5 /  15-----------------------------------------------|

"Detendre la diversion.."
G:|-------------------------------------------|
D:|16~ ------ 14 16~  ------------------------|
A:|17  14~ 15    17   -------------------5~~ -|
E:|--- 15-------------5 555555 5555 5555------|

==========
ESTRIBILLO
==========
"yo tengo fuerzas.."
G:|------------- 7--------------------|
D:|--- 4 ------- 5-------- 45 4-------|
A:|5 5 - 7 5 7 ---------------- 7 5 7-|
E:|----------- 3 - 0 55555 -----------|

"aunque me saquen.."
G:|------------- 7--------------------|
D:|--- 4 ------- 5-------- 45 4-------|
A:|5 5 - 7 5 7 ---------------- 7 5 7-|
E:|----------- 3 - 0 55555 -----------|

"yo tengo fuerzas.."
G:|------------- 7--------------------|
D:|--- 4 ------- 5-------- 45 4-------|
A:|5 5 - 7 5 7 ---------------- 7 ----|
E:|----------- 3 - 0 55555 -----------|

"no me veran"
G:|------------------------------------------------|
D:|------------------------------------------------|
A:|------------------------------------------------|
E:|2 222 2 2 3 333 3 33 5 55555 555 555 555 555 55-|

"yo tengo fuerzas.."
G:|------------- 7--------------------|
D:|--- 4 ------- 5-------- 45 4-------|
A:|5 5 - 7 5 7 ---------------- 7 5 7-|
E:|----------- 3 - 0 55555 -----------|

"aunque me saquen.."
G:|------------- 7--------------------|
D:|--- 4 ------- 5-------- 45 4-------|
A:|5 5 - 7 5 7 ---------------- 7 5 7-|
E:|----------- 3 - 0 55555 -----------|

"yo tengo fuerzas.."
G:|------------- 7--------------------|
D:|--- 4 ------- 5-------- 45 4-------|
A:|5 5 - 7 5 7 ---------------- 7 ----|
E:|----------- 3 - 0 55555 -----------|

"no me veran"
G:|------------------------------------------------|
D:|------------------------------------------------|
A:|------------------------------------------------|
E:|2 222 2 2 3 333 3 33 5 55555 555 555 555 555 55-|
Suggest correction
Creating personal tab
Creating personal tab
You can edit any tab online and save it as your Personal.

You can edit, replace or remove any tab part or add personal notes – all changes will be seen only by you.

Personal tabs can be accessed anytime from any device, even offline.
Learn more »
Give kudos to tab author, rate the tab!
1 2 3 4 5
comments
print report bad tab
guest
Wanna post a correction for this tab? Suggest correction