Oops, an error
Loading. Please wait.

No Hay Lugar tab

41 views 1 this week
no commentswrite comment
1 2 3 4 5
3 more votes to show rating
add to favorites
×
Save as Personal and add changes to this tab that will be seen only by you. Learn more ›
×
You can save this tab as Personal to edit and correct it or add notes. All changes will be seen only by you. Learn more »
launch autoscroll
font size
0
reset
how to read this tab
guitar tuner
edit
Autoscroll
slow
fast
+/-
esc
set tempo
stop
No hay lugar - Cadena Perpetua

Riff 1
e|--------------------------
B|--------------------------
G|--------------------------
D|-2-2---------------------
A|-2-2---------------------
E|-0-0---2--0-2--0-2----

Riff 2
e|---------------------------------------------------
B|---------------------------------------------------
G|---------------------------------------------------
D|-2------------------------2---2------------------
A|-2------------------------2---2------------------
E|-0--0-2--0-2--0-2------0-0--2--0-2--0-2-(x2)


Intro

e|-------------------------------------------------------------
B|------9------9----------10-----10--------10-----10--------10-----10
G|---9-9----9-9------9-9-9----9-9-----7-7-7----7-7-----6-6-6-----6-6
D|-------------------------------------------------------------
A|-------------------------------------------------------------
E|-------------------------------------------------------------

(Todo en 5tas)

Intro (x2)

Sigue con intro

No hay un camino seguro no existe una meta a la que deba llegar

El fracaso es el miedo del nuevo milenio
               A  C  F# F Riff      A  C  F# F Riff2
y no lo necesitas

A                  F#            F                 E
La impaciencia te nubla todos los sentidos es la desesperación
A                  F#           F                 E           A  C  F#
del que nada en el rio y nunca ve tierra y ya no puede respirar
F             Riff                        A  C  F#
corriendo una carrera absurda solo necesitas
       F  Riff 2
soltar las cosas que te anulan

(en cuerdas  5ta,4ta y 3ra)
F#                                 E
fácil y en silencio me voy llenando lento de desprecio
                  B                              E
si no despierto rápido me muero estoy cansado de esta ilusión
fácil y en silencio me voy llenando lento de desprecio
si no despierto rápido me muero estoy cansado de tanta ilusión

        A  C  F# F Riff                    A  C  F# F Riff  2
      camino [x5]                           y se fue(x4)

llevate el premio consuelo yo no estoy compitiendo ni tengo adonde llegar
las preguntas contestan las respuesta molestan yo prefieron caminar

mañana se termina el mundo solo necesitas
seguir atravesando muros

fácil y en silencio me voy llenando lento de desprecio

si no despierto rápido me muero estoy cansado de esta ilusión
fácil y en silencio me voy llenando lento de desprecio
si no despierto rápido me muero estoy cansado de tanta ilusión

camino (x5) y se fue(x4)


F                  C              G                    G
no hay ningún lugar adonde deba llegar solo hay que caminar (x6)

            
            
Suggest correction
Creating personal tab
Creating personal tab
You can edit any tab online and save it as your Personal.

You can edit, replace or remove any tab part or add personal notes – all changes will be seen only by you.

Personal tabs can be accessed anytime from any device, even offline.
Learn more »
Give kudos to tab author, rate the tab!
1 2 3 4 5
comments
print report bad tab
guest
Wanna post a correction for this tab? Suggest correction