Oops, an error
Loading. Please wait.

Por Una Cabeza tab

385 views 1 this week
no commentswrite comment
1 2 3 4 5
3 more votes to show rating
add to favorites
×
Save as Personal and add changes to this tab that will be seen only by you. Learn more ›
×
You can save this tab as Personal to edit and correct it or add notes. All changes will be seen only by you. Learn more »
launch autoscroll
font size
0
reset
how to read this tab
guitar tuner
edit
Autoscroll
slow
fast
+/-
esc
set tempo
stop
( los acordes pueden ir en 5tas pero igualmente suenan bien.. creo.)


            A#
Por una cabeza de un noble potrillo
                              E    F
que justo en la raya afloja al llegar
             C            A
y que al regresar parece decir:
               C             A#
No olvides, hermano, otra vez no hay que jugar.
      

            A# 
Por una cabeza, metejon de un dia
                               C D#
de aquella coqueta y risueña mujer,
               D#             D
que al jurar sonriendo, el amor que esta mintiendo,
            C                     F
quema en una hoguera todo mi querer.


       A#   F        D# D
Por una cabeza, toda la locura.
      D# D            C                   F
Tu boca me besa, borra la tristeza, calma la amargura.
       A#   F        D# D
Por una cabeza, si ella me olvida
      D# D            C                 A#
que importa perderme mil veces la vida, para que vivir.

SOLO:

1-----------------3--3----1---1----------------------------------------3--3----1---1-----------
2---1--1-----1--------------------------------------------1--1-----1---------------------------
3----------2------------------------------------------------------2----------------------------
4----------------------------------------------------------------------------------------------
5----------------------------------------------------------------------------------------------
6----------------------------------------------------------------------------------------------

1-----------------------5----5-----------3------3------------------------------5----5----3---3-
2---3---3--0---3---------------------------------------------3--3-----0---3--------------------
3----------------------------------------------------------------------------------------------
4----------------------------------------------------------------------------------------------
5----------------------------------------------------------------------------------------------
6----------------------------------------------------------------------------------------------


Enganche: D# D D# D D# F

            A#
Cuantos desengaños, por una cabeza.
                              E    F
Yo jure mil veces, no vuelvo a insistir.
             C            A
Pero si un mirar me hiere al pasar,
               C             A#
tu boca de fuego otra vez quiero besar.
             

             A#
Basta de carreras, se acabo la timba.
                          C D#
Un final reñido ya no vuelvo a ver!
                D#             D
Pero si algun pingo llega a ser fija el domingo,
              C                     F
yo me juego entero. ­Que le voy a hacer!!!

       A#   F        D# D
Por una cabeza, toda la locura.
      D# D            C                   F
Tu boca me besa, borra la tristeza, calma la amargura.
       A#   F        D# D
Por una cabeza, si ella me olvida
      D# D            C                 A#
que importa perderme mil veces la vida, para que vivir.


Esta es mi primer tablatura, así ke paciencia. Por ahi el solo puede 
que este medio choto, pero al menos algo hay.
En fin puteadas, Sugerencias, Comentarios, lo ke se les ocurra... a Julianantenore@ 

Aguante Cadena Perpetua, y el punk rock argentino!!!!!!!!!!!!!
Suggest correction
Creating personal tab
Creating personal tab
You can edit any tab online and save it as your Personal.

You can edit, replace or remove any tab part or add personal notes – all changes will be seen only by you.

Personal tabs can be accessed anytime from any device, even offline.
Learn more »
Give kudos to tab author, rate the tab!
1 2 3 4 5
comments
print report bad tab
guest
Wanna post a correction for this tab? Suggest correction