Oops, an error
Loading. Please wait.

Sigo Aca chords

version 1
version 1

Whole song

70 views 1 this week
no commentswrite comment
1 2 3 4 5
3 more votes to show rating
add to favorites
×
Save as Personal and add changes to this tab that will be seen only by you. Learn more ›
×
You can save this tab as Personal to edit and correct it or add notes. All changes will be seen only by you. Learn more »
launch autoscroll
font size
0
reset
transpose
0
reset
simplify chords
display chords
guitar tuner
edit
Autoscroll
slow
fast
+/-
esc
set tempo
stop
Author
Difficulty
intermediate
Strumming
There is no strumming pattern for this song yet. and get +5 IQ
Intro:
e|---------------------------------------------------------------------------------|
B|---------------------------------------------------------------------------------|
G|---------------------------------------------------------------------------------|
D|-4-4-4-4-2-0-4-4-4-4-2-0-2-4-4-4-4-2-0-4-4-4-4-2-0-4-4-4-4-2-0-2-4-4-4-4-2-0-----|
A|-----------------------------------------------------------------------------2-5-|
E|---------------------------------------------------------------------------------|

[arreglo G5] 

B|-3-3-
e|-3-3-
                                                         A5-D5
Aunque me quiten la ilusión, aunque me quede sin aliento
                                                             
No cambio aunque me pida Dios, yo sé que llegará el momento.
G5                    [arreglo] G5                           A5
  Mientras yo sigo acá            sepan que siempre hay un final

Y a ver quién se ríe más.

D5                                                      B5 A5-D5
Aunque me cueste caminar tres veces más de lo que puedo.
D5                                                       B5   A5
Aunque me empujen vuelvo a estar juntando fuerzas en el suelo.
G5                  [arreglo] G5                           A5
  Veran que sigo acá            sepan que siempre hay un final
 
Y a ver quién se ríe más.

Solo:


D|-4-4-4-0-4h5-4-0-0-2/4--4-4-0-4h5-4-2-4-2-0---4-4-4-0-4h5-4-0-0-4--4-4-0-7-5-4-5-4-5-4-5-4-5-4-5-|
A|-------------------------------------------5p2----------------------------------------------------

                                                            (repite "-5-4-"hasta que termina solo)

G5                  [arreglo] G5                           A5
  Veran que sigo acá            sepan que siempre hay un final
 
Y a ver quién se ríe más.
D5                                             B5  A5
 Sigan saltando sobre mí, serán eternos mis deseos.
D5                                              B5  A5
Sigan burlándose de mí, sigan que saben como hacerlo.
G5                  [arreglo] G5                         A5
  Sigan que sigo acá          verán que siempre hay un final

Y a ver quién se ríe más.

            
            
Suggest correction
Creating personal tab
Creating personal tab
You can edit any tab online and save it as your Personal.

You can edit, replace or remove any tab part or add personal notes – all changes will be seen only by you.

Personal tabs can be accessed anytime from any device, even offline.
Learn more »
Give kudos to tab author, rate the tab!
1 2 3 4 5
comments
print report bad tab
guest
You may want to rate the tab now too:
select rating
Wanna post a correction for this tab? Suggest correction