Oops, an error
Loading. Please wait.

Sigo Aca tab

version 1
version 1

Whole song

92 views 1 this week
no commentswrite comment
1 2 3 4 5
3 more votes to show rating
add to favorites
×
Save as Personal and add changes to this tab that will be seen only by you. Learn more ›
×
You can save this tab as Personal to edit and correct it or add notes. All changes will be seen only by you. Learn more »
launch autoscroll
font size
0
reset
how to read this tab
guitar tuner
edit
Autoscroll
slow
fast
+/-
esc
set tempo
stop
INTRO:
e |--------------------------------------------------------------|
B |--------------------------------------------------------------|
G |-4-4-4-4-2-0----4-4-4-4-2-0-2==[Ax2]=[B]=--4-4-4-4-2-0--------|
D |-------------------------------------------------------2-4/5--|
A |--------------------------------------------------------------|
E |--------------------------------------------------------------|
   \==== A ====/   \==== B ====/


BRIDGE:

e |---------------------------------------------------|
B |---------------------------------------------------|
G |---------------------------------------------------|
D |--4-4-4-0-4/5-4-0-2-4----4-4-0-4/5-4-2-4-2-0-------|
A |----------------------------------------------5/2--|
E |---------------------------------------------------|

e |---------------------------------------------------|
B |---------------------------------------------------|
G |---------------------------------------------------|
D |--4-4-0-4/5-4-0-2-4----4-4-0-4/7-5-4-5--[4-5]------|
A |------------------------------------------*--------|
E |---------------------------------------------------|
                    *: Repite hasta el final del Bridge


ACORDES: (power-chords)

    verse     chorus
e |--------|-----------|
B |--------|-----------|
G |--7-----|-----------|
D |--7--9--|--\--5--7--|
A |--5--9--|--\--5--7--|
E |-----7--|--\--3--5--|
     


LETRA:

Aunque me quiten la ilusion
Aunque me quede sin aliento

No cambio aunque me pida Dios
Yo se que llegara el momento

Mientras yo sigo aca
Sepan que siempre hay un final
Y a ver quien se rie mas

Aunque me cueste caminar
Tres veces mas de lo que puedo

Aunque me empujen vuelvo a estar...
...juntando fuerzas en el suelo

Veran que sigo aca
Sepan que siempre hay un final
Y a ver quien se rie mas

BRIDGE

Veran que sigo aca
Sepan que siempre hay un final
Y a ver quien se rie mas

Sigan saltando sobre mi
Seran eternos mis deseos

Sigan burlandose de mi
Sigan que saben como hacerlo

Sigan que sigo aca
Veran que siempre hay un final
Y a ver quien se rie mas

------------------------=====================------------------------
                         jdcm182@
------------------------=====================------------------------
Tabs subidos hasta la fecha de publicacion:

- CADENA PERPETUA - SIGO ACA
- WDK - CIUDAD CENTRAL
- WDK - QUE NECESITAS?
- EL OTRO YO - INMADURO
- SMITTEN - INTENTO

------------------------=====================------------------------

            
            
Suggest correction
Creating personal tab
Creating personal tab
You can edit any tab online and save it as your Personal.

You can edit, replace or remove any tab part or add personal notes – all changes will be seen only by you.

Personal tabs can be accessed anytime from any device, even offline.
Learn more »
Give kudos to tab author, rate the tab!
1 2 3 4 5
comments
print report bad tab
guest
Wanna post a correction for this tab? Suggest correction