Oops, an error
Loading. Please wait.

Trampa Mortal tab

16 views 1 this week
no commentswrite comment
1 2 3 4 5
3 more votes to show rating
add to favorites
×
Save as Personal and add changes to this tab that will be seen only by you. Learn more ›
×
You can save this tab as Personal to edit and correct it or add notes. All changes will be seen only by you. Learn more »
launch autoscroll
font size
0
reset
how to read this tab
guitar tuner
edit
Autoscroll
slow
fast
+/-
esc
set tempo
stop
Intro: A E D x4

(La intro del tema es sencilla, aunque presten atencion al ritmo
 de la melodìa)

    A                                                    E       D
E:-----------------------------------------------------------------------
B:--10-10--10-10--10-10--10----10-10--10-10--10-10--10---121212--101010--
G:---9--9---7--7---6--6---7-----9--9---7--7---6--6---7---131313--111111--
D:-----------------------------------------------------------------------
A:-----------------------------------------------------------------------
E:-----------------------------------------------------------------------


A              D-D E         D
Va a ser mejor    que no prometas nada
A          D-D E          D
honestidad    es lo que aca hace falta
F#                          D
pongamos fin que siempre es el mismo show
G            D        A
palabras que no dicen nada
A                       F#
que se termine esta maldita funcion
   G         D         E
que ya no nos causa mas gracia


A              D-D E            D
va a ser mejor      que no le creas nada
A           D-D E         D
integracion      es lo q aca hace falta

F#                     D
creo q es hora de prestar atencion
G              D         A
dormimos mientras nos aplastan
A                          F#
y es tan escasa nuestra preocupacion
 G             D      E
que solo instalamos alarmas


Estribillo:

A - A            D            E
para que seguir asi!? dudando del q pasa
A - A            D            E
para que seguir asi!? cuidandonos la espalda
 C#          F#      D          E
basta de traiciones que entre nosotros
         C#         F#   D                  E
no hay mejores ni peores no te dejes tentar que es una trampa!


(En la siguiente parte la canción sube un semitono, igual se las dejo)


    A#                                                   F       D#
E:-----------------------------------------------------------------------
B:--11-11--11-11--11-11--11----11-11--11-11--11-11--11---131313--111111--
G:--10-10---8--8---7--7---8----10-10---8--8---7--7---8---141414--121212
D:-----------------------------------------------------------------------
A:-----------------------------------------------------------------------
E:-----------------------------------------------------------------------


 G                          D#
pongamos fin que siempre es el mismo show
G#           D#        A#
palabras que no dicen nada
A#                      G
que se termine esta maldita funcion
    G#         D#         F
que ya no nos causa mas gracia


A# - A#          D#         F
para que seguir asi!? dudando del q pasa
A# - A#          D#            F
para que seguir asi!? cuidandonos la espalda
 D             G      D#          F
basta de traiciones que entre nosotros
          D         G
no hay mejores ni peores
D#                 F                     A#
no te dejes tentar  que es una trampa mortal


Outro:

    A#                                                   F       D#
E:-----------------------------------------------------------------------
B:--11-11--11-11--11-11--11----11-11--11-11--11-11--11---131313--111111--
G:--10-10---8--8---7--7---8----10-10---8--8---7--7---8---141414--121212
D:-----------------------------------------------------------------------
A:-----------------------------------------------------------------------
E:-----------------------------------------------------------------------


Weno, ahi esta la cancion; cualkier duda o comentario mi mail es

goosy_06@

"Que la mùsica dignifique lo que el silencio te cede...."

            
            
Suggest correction
Creating personal tab
Creating personal tab
You can edit any tab online and save it as your Personal.

You can edit, replace or remove any tab part or add personal notes – all changes will be seen only by you.

Personal tabs can be accessed anytime from any device, even offline.
Learn more »
Give kudos to tab author, rate the tab!
1 2 3 4 5
comments
print report bad tab
guest
Wanna post a correction for this tab? Suggest correction