Oops, an error
Loading. Please wait.

Black Hand Tab

322 views 1 this week
no commentswrite comment
1 2 3 4 5
please rate
add to favorites
launch autoscroll
font size
0
reset
how to read this tab
guitar tuner
Tab Pro tools
  • play this tab
  • loop segment
  • change instrument
  • show fretboard
  • metronome
Autoscroll
slow
fast
+/-
esc
set tempo
stop
Contributor
Difficulty
novice
Cadence Weapon - Black Hand
Tabbed by Rory Lidstone
Official Cadence Weapon site: www.cadenceweaponmusic.com
Only my second tab here, and I'm somewhat unsure of it, so please give me any 
you've got!

Main bit:        Then:

|---------------|-----------------|
|---------------|-----------------|
|-9-8-----------|-10-12-----------|
|-X-X-6--7--7-7-|--X--X-6--7--7-7-|
|-7-6-X--X--X-X-|--8-10-X--X--X-X-|
|-0---4--5--5-5-|-------4--5--5-5-|

So just back and forth between those two riffs for a while...

Then, I'm very unsure about this:
|----------|
|-3--3-3---|
|--------3-|
|----------|
|----------|
|----------|

SOMETHING like that 4 times.

And, of course, the bridge:

|-------------------------------|
|-------------------------------|
|-------------------------------|
|-4---4/7-7---7/6-6---6/11---11-|
|-X---X/X-X---X/X-X---X/-X----X-|
|-2---2/5-5---5/4-4---4/-9----9-|X4

"I said, 'Get 'em, I'm done with dead rhythms...'"

Anyway, I think it's passable.
Have fun!
comments
We did not receive enough feedback on this tab! Please rate:
print report bad tab
1 2 3 4 5
I want to post or [tab]
guest
You may want to rate the tab now too:
select rating
Please do not post tabs as comments. Select "correction" instead!