Oops, an error
Loading. Please wait.

Sort It Out tab

version 1
version 1

Whole song

Interactive

by Caesars
1,409 views 1 this week
1 commentread comment
1 2 3 4 5
1 last vote to show rating
add to favorites
×
Save as Personal and add changes to this tab that will be seen only by you. Learn more ›
×
You can save this tab as Personal to edit and correct it or add notes. All changes will be seen only by you. Learn more »
launch autoscroll
font size
0
reset
how to read this tab
guitar tuner
edit
Autoscroll
slow
fast
+/-
esc
set tempo
stop
Author
The Caesars
Sort It Out
Youth is Wasted on the Young/39 Minutes of Bliss (In an Otherwise Meaningless World)

Tuning: Standard

Updated October 15, 2012
This is probably 95-100% correct.

***Credit to chris flatley for some corrections on the intro.***

Guitar 1 - Electric, some distortion
Guitar 2 - Nylon string (maybe finger picked, not sure)
Guitar 3 - In the song, this is not a guitar. It's a keyboard. It has been 
transcribed from keyboard to guitar.
Guitar 4 - Electric, some distortion. (in the recording, it was probably dubbed in)

Intro - Guitar 1
e|----------------0--------------0------------------0--------------0----|
B|--------3-----3----------3-------3--------3-----3----------3-------3--|
G|------4-----4----------2-----2----------2-----2----------0-----0------|
D|----4-----4----------4-----4----------2-----2----------2-----2--------|
A|--2----------------5----------------0---------------------------------|
E|-----------------------------------------------------3----------------|

continued
e|----------------0--------------0------------------0-------------------|
B|--------3-----3----------3-------3--------3-----3----------3-------3--|
G|------4-----4----------2-----2----------2-----2----------0-------0----|
D|----4-----4----------4-----4----------2-----2----------2-------2------|
A|--2----------------5----------------0---------------------------------|
E|-----------------------------------------------------3-------0--------|

continued
e|--------------0------------------0--------------0----------------0----|
B|--------3-------3--------3-----3----------3-------3--------3-------3--|
G|------4-----4----------2-----2----------2-----2----------0-----0------|
D|----4-----4----------4-----4----------2-----2----------2-----2--------|
A|--2----------------5----------------0---------------------------------|
E|-----------------------------------------------------3----------------|

continued
e|----------------0--------------0------------------0-------------------|
B|--------3-----3----------3-------3--------3-----3----------3-------3--|
G|------4-----4----------2-----2----------2-----2----------0-------0----|
D|----4-----4----------4-----4----------2-----2----------2-------2------|
A|--2----------------5----------------0---------------------------------|
E|-----------------------------------------------------3-------0--------|

Intro - Guitar 2
e|--------------0------------------0--------------0----------------0----|
B|--------3-------3--------3-----3----------3-------3--------3-------3--|
G|------4-----4----------2-----2----------2-----2----------0-----0------|
D|----4-----4----------4-----4----------2-----2----------2-----2--------|
A|--2----------------5----------------0---------------------------------|
E|-----------------------------------------------------3----------------|

continued
e|--------------0------------------0--------------0----------------0----|
B|--------3-------3--------3-----3----------3-------3--------3-------3--|
G|------4-----4----------2-----2----------2-----2----------0-----0------|
D|----4-----4----------4-----4----------2-----2----------2-----2--------|
A|--2----------------5----------------0---------------------------------|
E|-----------------------------------------------------3----------------|

continued
e|--------------0------------------0--------------0----------------0----|
B|--------3-------3--------3-----3----------3-------3--------3-------3--|
G|------4-----4----------2-----2----------2-----2----------0-----0------|
D|----4-----4----------4-----4----------2-----2----------2-----2--------|
A|--2----------------5----------------0---------------------------------|
E|-----------------------------------------------------3----------------|

continued
e|--------------0------------------0--------------0----------------0----|
B|--------3-------3--------3-----3----------3-------3--------3-------3--|
G|------4-----4----------2-----2----------2-----2----------0-----0------|
D|----4-----4----------4-----4----------2-----2----------2-----2--------|
A|--2----------------5----------------0---------------------------------|
E|-----------------------------------------------------3----------------|

Intro - Guitar 3
e|-----10----12------10----12------10----10-----10---10--|\
B|--12----12------10----10------10----10------8----8-----| \
G|-------------------------------------------------------|  \
D|-------------------------------------------------------|   \
A|-------------------------------------------------------|    \
E|-------------------------------------------------------|     \  
                                                                \
continued                                                       / x2
e|-----10----12------10----12------10----12-----10---10--|     /
B|--12----12------10----10------10----10------8----8-----|    /
G|-------------------------------------------------------|   /
D|-------------------------------------------------------|  /
A|-------------------------------------------------------| /
E|-------------------------------------------------------|/

Pre-verse 1 - Guitar 1
e|-------------------------------------------------------------------|
B|-------------------------------------------------------------------|
G|----------------4---------------7----------------------------------| x2
D|----2-4---2-4-------5-7---5-7-------------------7---------------5--|
A|--2-----2-----2---5-----5-----5-----5-7---5-7-------3-5---3-5------|
E|----------------------------------5-----5-----5---3-----3-----3----|

Pre-verse 1 - Guitar 3 
e|--7---------------10---------------------------------|
B|--7---------------10--------------10--------------8--|
G|--4----------------7---------------9--------------7--| x2 
D|-----------------------------------7--------------5--|
A|-----------------------------------------------------|
E|-----------------------------------------------------|

Pre-verse 1 - Guitar 4
e|-------------------------------------------------------------------|
B|-------------------------------------------------------------------|
G|-------------------------------------------------------------------| x2
D|--4-4-4-4-4-4-4-4-7-7-7-7-7-7-7-7----------------------------------|
A|--2-2-2-2-2-2-2-2-5-5-5-5-5-5-5-5-7-7-7-7-7-7-7-7-5-5-5-5-5-5-5-5--|
E|----------------------------------5-5-5-5-5-5-5-5-3-3-3-3-3-3-3-3--|

Verse 1 - Guitar 1
e|-------------------------------------------------------------------|
B|-------------------------------------------------------------------|
G|-------------------------------------------------------------------| x3
D|----2-4---2-4---4---5-7---5-7---7----------------------------------|
A|--2-----2-----2---5-----5-----5-----5-7---5-7---7---3-5---3-5---5--|
E|----------------------------------5-----5-----5---3-----3-----3----|

continued
e|-------------------|
B|-------------------|
G|-------------------|
D|-------------------|
A|--5-5-5-5-7-7-7-7--|
E|--3-3-3-3-5-5-5-5--|

Verse 1 - Guitar 3 
e|--7---------------10---------------------------------|
B|--7---------------10--------------10--------------8--|
G|--4----------------7---------------9--------------7--| x3
D|-----------------------------------7--------------5--|
A|-----------------------------------------------------|
E|-----------------------------------------------------|

Verse 1 - Guitar 4
e|-------------------------------------------------------------------|
B|-------------------------------------------------------------------|
G|-------------------------------------------------------------------| x3
D|--4-4-4-4-4-4-4-4-7-7-7-7-7-7-7-7----------------------------------|
A|--2-2-2-2-2-2-2-2-5-5-5-5-5-5-5-5-7-7-7-7-7-7-7-7-5-5-5-5-5-5-5-5--|
E|----------------------------------5-5-5-5-5-5-5-5-3-3-3-3-3-3-3-3--|

continued
    G    A
e|--3----5--|
B|--3----5--|
G|--4----6--|
D|--5----7--|
A|--5----7--|
E|--3----5--|

Chorus 1 - Guitar 1
e|-------------------------------------------------------------------|
B|-------------------------------------------------------------------|
G|--4-4-4-4-4-4-4-4--------------------------------------------------| x2
D|--4-4-4-4-4-4-4-4-5-5-5-5-5-5-5-5-4-4-4-4-4-4-4-4-4-4-4-4-4-4-4-4--|
A|--2-2-2-2-2-2-2-2-5-5-5-5-5-5-5-5-4-4-4-4-4-4-4-4-4-4-4-4-4-4-4-4--|
E|------------------3-3-3-3-3-3-3-3-2-2-2-2-2-2-2-2-2-2-2-2-2-2-2-2--|
You can play the full chords on Guitar 1 as played on Guitar 4 for a fuller sound, 
but this is how it is on the recording.

Chorus 1 - Guitar 4
    Bm              G               F#
e|--2---------------3---------------2---------------2----------------|
B|--3---------------3---------------2---------------2----------------|
G|--4---------------4---------------3---------------3----------------| x2
D|--4---------------5---------------4---------------4----------------|
A|--2---------------5---------------4---------------4----------------|
E|------------------3---------------2---------------2----------------|

Pre-verse 2 - Guitar 1
e|-------------------------------------------------------------------|
B|-------------------------------------------------------------------|
G|----------------4---------------7----------------------------------| x2
D|----2-4---2-4-------5-7---5-7-------------------7---------------5--|
A|--2-----2-----2---5-----5-----5-----5-7---5-7-------3-5---3-5------|
E|----------------------------------5-----5-----5---3-----3-----3----|

Pre-verse 2 - Guitar 3 
e|--7---------------10---------------------------------|
B|--7---------------10--------------10--------------8--|
G|--4----------------7---------------9--------------7--| x2 
D|-----------------------------------7--------------5--|
A|-----------------------------------------------------|
E|-----------------------------------------------------|

Pre-verse 2 - Guitar 4
e|-------------------------------------------------------------------|
B|-------------------------------------------------------------------|
G|-------------------------------------------------------------------| x2
D|--4-4-4-4-4-4-4-4-7-7-7-7-7-7-7-7----------------------------------|
A|--2-2-2-2-2-2-2-2-5-5-5-5-5-5-5-5-7-7-7-7-7-7-7-7-5-5-5-5-5-5-5-5--|
E|----------------------------------5-5-5-5-5-5-5-5-3-3-3-3-3-3-3-3--|

Verse 2 - Guitar 1
e|-------------------------------------------------------------------|
B|-------------------------------------------------------------------|
G|-------------------------------------------------------------------| x3
D|----2-4---2-4---4---5-7---5-7---7----------------------------------|
A|--2-----2-----2---5-----5-----5-----5-7---5-7---7---3-5---3-5---5--|
E|----------------------------------5-----5-----5---3-----3-----3----|

continued
e|-------------------|
B|-------------------|
G|-------------------|
D|-------------------|
A|--5-5-5-5-7-7-7-7--|
E|--3-3-3-3-5-5-5-5--|

Verse 2 - Guitar 3 
e|--7---------------10---------------------------------|
B|--7---------------10--------------10--------------8--|
G|--4----------------7---------------9--------------7--| x2 
D|-----------------------------------7--------------5--|
A|-----------------------------------------------------|
E|-----------------------------------------------------|

Verse 2 - Guitar 4 
e|-------------------------------------------------------------------|
B|-------------------------------------------------------------------|
G|-------------------------------------------------------------------| x3
D|--4-4-4-4-4-4-4-4-7-7-7-7-7-7-7-7----------------------------------|
A|--2-2-2-2-2-2-2-2-5-5-5-5-5-5-5-5-7-7-7-7-7-7-7-7-5-5-5-5-5-5-5-5--|
E|----------------------------------5-5-5-5-5-5-5-5-3-3-3-3-3-3-3-3--|

continued
    G    A
e|--3----5--|
B|--3----5--|
G|--4----6--|
D|--5----7--|
A|--5----7--|
E|--3----5--|


Chorus 2 - Guitar 1
e|------------------------------------------------------------------|
B|------------------------------------------------------------------|
G|--4-4-4-4-4-4-4-4-------------------------------------------------| x4
D|--4-4-4-4-4-4-4-4-5-5-5-5-5-5-5-5-4-4-4-4-4-4-4-4-4-4-4-4-4-4-4-4-|
A|--2-2-2-2-2-2-2-2-5-5-5-5-5-5-5-5-4-4-4-4-4-4-4-4-4-4-4-4-4-4-4-4-|
E|------------------3-3-3-3-3-3-3-3-2-2-2-2-2-2-2-2-2-2-2-2-2-2-2-2-|

Chorus 2 - Guitar 4
    Bm              G               F#
e|--2---------------3---------------2---------------2----------------|
B|--3---------------3---------------2---------------2----------------|
G|--4---------------4---------------3---------------3----------------| x2
D|--4---------------5---------------4---------------4----------------|
A|--2---------------5---------------4---------------4----------------|
E|------------------3---------------2---------------2----------------|

(Very short) Bridge - Guitar 3
e|--7---------------10---------------------------------|
B|--7---------------10--------------10--------------8--|
G|--4----------------7---------------9--------------7--|
D|-----------------------------------7--------------5--|
A|-----------------------------------------------------|
E|-----------------------------------------------------|

Pre-chorus/Post-bridge - Guitar 1
e|-------------------------------------------------------------------|
B|-------------------------------------------------------------------|
G|----------------4---------------7----------------------------------| x2
D|----2-4---2-4-------5-7---5-7-------------------7---------------5--|
A|--2-----2-----2---5-----5-----5-----5-7---5-7-------3-5---3-5------|
E|----------------------------------5-----5-----5---3-----3-----3----|

continued
e|-------------------|
B|-------------------|
G|-------------------|
D|-------------------|
A|--5-5-5-5-7-7-7-7--|
E|--3-3-3-3-5-5-5-5--|

Pre-chorus/Post-bridge - Guitar 3 
e|--7---------------10---------------------------------|
B|--7---------------10--------------10--------------8--|
G|--4----------------7---------------9--------------7--| x2 
D|-----------------------------------7--------------5--|
A|-----------------------------------------------------|
E|-----------------------------------------------------|

Pre-chorus/Post-bridge - Guitar 4
e|-------------------------------------------------------------------|
B|-------------------------------------------------------------------|
G|-------------------------------------------------------------------| x2
D|--4-4-4-4-4-4-4-4-7-7-7-7-7-7-7-7----------------------------------|
A|--2-2-2-2-2-2-2-2-5-5-5-5-5-5-5-5-7-7-7-7-7-7-7-7-5-5-5-5-5-5-5-5--|
E|----------------------------------5-5-5-5-5-5-5-5-3-3-3-3-3-3-3-3--|

continued
    G    A
e|--3----5--|
B|--3----5--|
G|--4----6--|
D|--5----7--|
A|--5----7--|
E|--3----5--|

Chorus 3 - Guitar 1
e|------------------------------------------------------------------|
B|------------------------------------------------------------------|
G|--4-4-4-4-4-4-4-4-------------------------------------------------| x4
D|--4-4-4-4-4-4-4-4-5-5-5-5-5-5-5-5-4-4-4-4-4-4-4-4-4-4-4-4-4-4-4-4-|
A|--2-2-2-2-2-2-2-2-5-5-5-5-5-5-5-5-4-4-4-4-4-4-4-4-4-4-4-4-4-4-4-4-|
E|------------------3-3-3-3-3-3-3-3-2-2-2-2-2-2-2-2-2-2-2-2-2-2-2-2-|

Chorus 3 - Guitar 4
    Bm              G               F#
e|--2---------------3---------------2---------------2----------------|
B|--3---------------3---------------2---------------2----------------|
G|--4---------------4---------------3---------------3----------------| x4
D|--4---------------5---------------4---------------4----------------|
A|--2---------------5---------------4---------------4----------------|
E|------------------3---------------2---------------2----------------|

Guitar 4 ends on
   Bm
e|--2--|
B|--3--|
G|--4--|
D|--4--|
A|--2--|
E|-----|

Outro - Guitar 1
e|--------------0------------------0--------------0----------------0----|
B|--------3-------3--------3-----3----------3-------3--------3-------3--|
G|------4-----4----------2-----2----------2-----2----------0-----0------|
D|----4-----4----------4-----4----------2-----2----------2-----2--------|
A|--2----------------5----------------0---------------------------------|
E|-----------------------------------------------------3----------------|

continued
e|--------------0------------------0--------------0---------------------|
B|--------3-------3--------3-----3----------3-------3--------3-------3--|
G|------4-----4----------2-----2----------2-----2----------0-------0----|
D|----4-----4----------4-----4----------2-----2----------2-------2------|
A|--2----------------5----------------0---------------------------------|
E|-----------------------------------------------------3-------0--------|

continued
e|--------------0------------------0--------------0---------------------|
B|--------3-------3--------3-----3----------3-------3--------3-------3--|
G|------4-----4----------2-----2----------2-----2----------0-------0----|
D|----4-----4----------4-----4----------2-----2----------2-------2------|
A|--2----------------5----------------0---------------------------------|
E|-----------------------------------------------------3-------0--------|

continued
e|--------------0----------------0----------------0----|
B|--------3-------3--------3-------3--------3-------3--|
G|------4-----4----------2-----2----------2-----2------|
D|----4-----4----------4-----4----------2-----2--------|
A|--2----------------5----------------0----------------|
E|-----------------------------------------------------|

Outro - Guitar 2
e|----------------0--------------0------------------0--------------0----|
B|--------3-----3----------3-------3--------3-----3----------3-------3--|
G|------4-----4----------2-----2----------2-----2----------0-----0------|
D|----4-----4----------4-----4----------2-----2----------2-----2--------|
A|--2----------------5----------------0---------------------------------|
E|-----------------------------------------------------3----------------|

continued
e|--------------0------------------0--------------0----------------0----|
B|--------3-------3--------3-----3----------3-------3--------3-------3--|
G|------4-----4----------2-----2----------2-----2----------0-----0------|
D|----4-----4----------4-----4----------2-----2----------2-----2--------|
A|--2----------------5----------------0---------------------------------|
E|-----------------------------------------------------3----------------|

continued
e|--------------0------------------0--------------0----------------0----|
B|--------3-------3--------3-----3----------3-------3--------3-------3--|
G|------4-----4----------2-----2----------2-----2----------0-----0------|
D|----4-----4----------4-----4----------2-----2----------2-----2--------|
A|--2----------------5----------------0---------------------------------|
E|-----------------------------------------------------3----------------|

continued
e|--------------0------------------0--------------0----|
B|--------3-------3--------3-----3----------3-------3--|
G|------4-----4----------2-----2----------2-----2------|
D|----4-----4----------4-----4----------2-----2--------|
A|--2----------------5----------------0----------------|
E|-----------------------------------------------------|

That's all. If you've got any questions, comments, or maybe even corrections, then 
give me a message.

            
            
Suggest correction
Creating personal tab
Creating personal tab
You can edit any tab online and save it as your Personal.

You can edit, replace or remove any tab part or add personal notes – all changes will be seen only by you.

Personal tabs can be accessed anytime from any device, even offline.
Learn more »
Give kudos to tab author, rate the tab!
1 2 3 4 5
comments
print report bad tab
1 comment total.
0 reply
flakeyc 50 Feb 22, 2012 12:57 PM

the intro is a bit wrong, and you missed the octave note off the verse part.

guest
You may want to rate the tab now too:
select rating
Wanna post a correction for this tab? Suggest correction