Oops, an error
Loading. Please wait.

Cheap Glue bass

34 views 1 this week
no commentswrite comment
1 2 3 4 5
3 more votes to show rating
add to favorites
×
Save as Personal and add changes to this tab that will be seen only by you. Learn more ›
×
You can save this tab as Personal to edit and correct it or add notes. All changes will be seen only by you. Learn more »
launch autoscroll
font size
0
reset
guitar tuner
edit
Autoscroll
slow
fast
+/-
esc
set tempo
stop
Author
Difficulty
------------------------------------------------------------------------------- 
                             Cheap Glue – Caesar’s Palace
------------------------------------------------------------------------------- 
Album: Love for the Streets
Tabbed by John Cadaver 
email: Johncadaver@hotmail.com 

Tuning: Standard
Timing: 4/4 @ 80bpm

Please note: The lyrics are not set to the timing laid out here except for
specific instances (see 'bad' and 'glad' in the choruses).
The bass line is set to the timing I believe to be right - if you follow it
you will be playing the bass line correctly. If you wish to learn how to sing 
the song with the right timing. This is not the tab for you. The lyrics are 
provided below to give better context.

Verses
  1 e & a 2 e & a 3 e & a 4 e & a  1 e & a 2 e & a 3 e & a 4 e & a 
G|--------------------------------|--------------------------------| x4
D|4-----4-4-----4-----------------|----------------4-----4-4-----4-|
A|----------------4-----4-4-----4-|2-----2-2-----2-----------------|
E|--------------------------------|--------------------------------|
Cheap glue I'm telling you, you can never make it stick.        
Cheap glue I'm telling you, that it going to make you sick.
Cracked up in pieces and you still think it'll work this time.
I'm telling you again, you'll have to try a diff’rent kind.

Chorus
G|--------------------------------|--------------------------------| x2
D|--------------------------------|4-----4-4-----4-4-----4---------|
A|2-----2-2-----2-2-----2-2---2---|------------------------4-----4-|
E|--------------------------------|--------------------------------|            
You think that it's going to make you feel alright. 
You still think that it's going to make you feel alright.

G|--------------------------------|--------------------------------| x1
D|--------------------------------|4-----4-------------------------|
A|2-----2-2-----2-2-----2-2-----2-|--------4-----4-2---------------|
E|--------------------------------|--------------------------------|
                                ...bad
But cheap glue is just going to make you feel bad, 

G|--------------------------------|--------------------------------| x1
D|--------------------------------|4-----4-4-----4-4-----4-4-------|
A|2-----2-2-----2-2-----2-2-----2-|------------------------------4-|
E|--------------------------------|--------------------------------|
I'm telling you that it's never make me feel glad. 


Verse
G|--------------------------------|--------------------------------| x4
D|4-----4-4-----4-----------------|----------------4-----4-4-----4-|
A|----------------4-----4-4-----4-|2-----2-2-----2-----------------|
E|--------------------------------|--------------------------------|
Cheap glue I'm warning you, you'd better open up your eyes. 
Cheap glue I'm telling you, that it just ain't worth the price. 
You try your best to patch it together, but you know that it ain't no use. 
'Cause cheap glue will never hold, it just makes you look a fool.

Chorus
G|--------------------------------|--------------------------------| x2
D|--------------------------------|4-----4-4-----4-4-----4---------|
A|2-----2-2-----2-2-----2-2---2---|------------------------4-----4-|
E|--------------------------------|--------------------------------|            
You think that it's going to make you feel alright. 
You still think that it's going to make you feel alright.

G|--------------------------------|--------------------------------| x1
D|--------------------------------|4-----4-------------------------|
A|2-----2-2-----2-2-----2-2-----2-|--------4-----4-2---------------|
E|--------------------------------|--------------------------------|
                                ...bad
But cheap glue is just going to make you feel bad, 

G|--------------------------------|--------------------------------| x1
D|--------------------------------|4-----4-4-----4-4-----4-4-----4-|
A|--------------------------------|--------------------------------|
E|--------------------------------|--------------------------------|
                               ...glad
I'm telling you that it's never make me feel glad. 

Bridge (same as verse)
G|--------------------------------|--------------------------------| x2
D|4-----4-4-----4-----------------|----------------4-----4-4-----4-|
A|----------------4-----4-4-----4-|2-----2-2-----2-----------------|
E|--------------------------------|--------------------------------|

Chorus
G|--------------------------------|--------------------------------| x2
D|--------------------------------|4-----4-4-----4-4-----4---------|
A|2-----2-2-----2-2-----2-2-----2-|------------------------4-----4-|
E|--------------------------------|--------------------------------|
You think that it's going to make you feel alright. 
You still think that it's going to make you feel alright.

G|--------------------------------|--------------------------------| x1
D|--------------------------------|4-----4-------------------------|
A|2-----2-2-----2-2-----2-2-----2-|--------4-----4-2---------------|
E|--------------------------------|--------------------------------|
                                ...bad
But cheap glue is just going to make you feel bad, 

G|--------------------------------|--------------------------------| x1
D|--------------------------------|4-------------------------------|
A|--------------------------------|--------------------------------|
E|--------------------------------|--------------------------------|
                               ...glad
I'm telling you that it's never make me feel glad. 

            
            
Suggest correction
Creating personal tab
Creating personal tab
You can edit any tab online and save it as your Personal.

You can edit, replace or remove any tab part or add personal notes – all changes will be seen only by you.

Personal tabs can be accessed anytime from any device, even offline.
Learn more »
Give kudos to tab author, rate the tab!
1 2 3 4 5
comments
print report bad tab
guest
You may want to rate the tab now too:
select rating
Wanna post a correction for this tab? Suggest correction