Oops, an error
Loading. Please wait.

I Gun For You bass

26 views 1 this week
no commentswrite comment
1 2 3 4 5
3 more votes to show rating
add to favorites
×
Save as Personal and add changes to this tab that will be seen only by you. Learn more ›
×
You can save this tab as Personal to edit and correct it or add notes. All changes will be seen only by you. Learn more »
launch autoscroll
font size
0
reset
guitar tuner
edit
Autoscroll
slow
fast
+/-
esc
set tempo
stop
Author
Difficulty
------------------------------------------------------------------------------- 
                             I Gun For You – Caesar’s Palace
------------------------------------------------------------------------------- 
Album: Love for the Streets
Tabbed by John Cadaver 
email: Johncadaver@hotmail.com 
 
Tuning: EADG
4/4 timing at 66bpm.

The hardest thing about tabbing this was setting the lyrics accurately. 
Listen to the song and get a feel for how the lyrics lead into a new bar.
Also - if you're only playing bass and not singing along then it doesn't matter.
The rhythm is constant with 16ths played throughout.

Intro
  1 e & a 2 e & a 3 e & a 4 e & a  1 e & a 2 e & a 3 e & a 4 e & a 
G|--------------------------------|--------------------------------|
D|--------------------------------|--------------------------------|
A|7-7-7-7-7-7-7-7-7-7-7-7---------|--------------------------------|
E|------------------------9-9-9-9-|7-7-7-7-7-7-7-7-7-7-7-7-9-9-9-9-|

G|--------------------------------|--------------------------------|
D|--------------------------------|--------------------------------|
A|7-7-7-7-7-7-7-7-7-7-7-7---------|--------------------------------|
E|------------------------9-9-9-9-|7-7-7-7-7-7-7-7-7-7-7-7-9-9-9-9-|
                                                      You know you 
Verse
G|--------------------------------|--------------------------------|
D|--------------------------------|--------------------------------|
A|7-7-7-7-7-7-7-7-7-7-7-7---------|--------------------------------|
E|------------------------9-9-9-9-|7-7-7-7-7-7-7-7-7-7-7-7-9-9-9-9-|
  Space me out     and you mess me up                   and I checked you

G|--------------------------------|--------------------------------|
D|--------------------------------|--------------------------------|
A|7-7-7-7-7-7-7-7-7-7-7-7---------|------------------------9-9-9-9-|
E|------------------------9-9-9-9-|7-7-7-7-7-7-7-7-7-7-7-7---------|
  Out        So won’t you step right up You know you space me

G|--------------------------------|--------------------------------|
D|6-6-6-6-6-6-6-6-----------------|--------------------------------|
A|----------------9-9-9-9-9-9-9-9-|------------------------9-9-9-9-|
E|--------------------------------|7-7-7-7-7-7-7-7-7-7-7-7---------|
Out and you mess me up  and you run me down. So won’t you step right    

G|--------------------------------|--------------------------------|
D|6-6-6-6-6-6-6-6-----------------|--------------------------------|
A|----------------9-9-9-9-9-9-9-9-|--------------------------------|
E|--------------------------------|7-7-7-7-7-7-7-7-7-7-7-7-7-7-7-7-|
  Up. Won’t you cool me down. Coz I gun for you       Don't you know

Chorus
G|--------------------------------|--------------------------------|
D|--------------------------------|--------------------------------|
A|--------7-7-7-7-9-9-9-9-9-9-9-9-|--------7-7-7-7-9-9-9-9-9-9-9-9-|
E|7-7-7-7-------------------------|7-7-7-7-------------------------|
  I gun for you    Tell you that I gun for you        Don’t you know 

G|--------------------------------|--------------------------------|
D|--------------------------------|--------------------------------|
A|--------7-7-7-7-9-9-9-9-9-9-9-9-|--------7-7-7-7-9-9-9-9-9-9-9-9-|
E|7-7-7-7-------------------------|7-7-7-7-------------------------|
  I gun for you    Tell you that I gun for you        

Break
  1 e & a 2 e & a
G|----------------|
D|----------------|
A|9-9-9-9---------|
E|--------9-9-9-9-|

Bridge
  1 e & a 2 e & a 3 e & a 4 e & a  1 e & a 2 e & a 3 e & a 4 e & a 
G|--------------------------------|--------------------------------|
D|--------------------------------|--------------------------------|
A|7-7-7-7-7-7-7-7-7-7-7-7---------|--------------------------------|
E|------------------------9-9-9-9-|7-7-7-7-7-7-7-7-7-7-7-7-9-9-9-9-|

G|--------------------------------|--------------------------------|
D|--------------------------------|--------------------------------|
A|7-7-7-7-7-7-7-7-7-7-7-7---------|--------------------------------|
E|------------------------9-9-9-9-|7-7-7-7-7-7-7-7-7-7-7-7-9-9-9-9-|
                                                      You know you come

Verse
G|--------------------------------|--------------------------------|
D|--------------------------------|--------------------------------|
A|7-7-7-7-7-7-7-7-7-7-7-7---------|--------------------------------|
E|------------------------9-9-9-9-|7-7-7-7-7-7-7-7-7-7-7-7-9-9-9-9-|
  Around                 And you walk right I   You know you burn me

G|--------------------------------|--------------------------------|
D|--------------------------------|--------------------------------|
A|7-7-7-7-7-7-7-7-7-7-7-7---------|------------------------9-9-9-9-|
E|------------------------9-9-9-9-|7-7-7-7-7-7-7-7-7-7-7-7---------|
  up          And then you cool me out          Well you walk right

G|--------------------------------|--------------------------------|
D|6-6-6-6-6-6-6-6-----------------|--------------------------------|
A|----------------9-9-9-9-9-9-9-9-|------------------------9-9-9-9-|
E|--------------------------------|7-7-7-7-7-7-7-7-7-7-7-7---------|
  in and you shoot me down. And you burn me up. So won't you step right

G|--------------------------------|--------------------------------|
D|6-6-6-6-6-6-6-6-----------------|--------------------------------|
A|----------------9-9-9-9-9-9-9-9-|--------------------------------|
E|--------------------------------|7-7-7-7-7-7-7-7-7-7-7-7-7-7-7-7-| 
  in, won't you cool me out. Coz I  gun for you        Don’t you know


Chorus
G|--------------------------------|--------------------------------|
D|--------------------------------|--------------------------------|
A|--------7-7-7-7-9-9-9-9-9-9-9-9-|--------7-7-7-7-9-9-9-9-9-9-9-9-|
E|7-7-7-7-------------------------|7-7-7-7-------------------------|
  I gun for you    Tell you that I gun for you        Don’t you know 

G|--------------------------------|--------------------------------|
D|--------------------------------|--------------------------------|
A|--------7-7-7-7-9-9-9-9-9-9-9-9-|--------7-7-7-7-9-9-9-9-9-9-9-9-|
E|7-7-7-7-------------------------|7-7-7-7-------------------------|
  I gun for you    Tell you that I gun for you        


Break
  1 e & a 2 e & a
G|----------------|
D|----------------|
A|9-9-9-9---------|
E|--------9-9-9-9-|


Bridge
  1 e & a 2 e & a 3 e & a 4 e & a  1 e & a 2 e & a 3 e & a 4 e & a 
G|--------------------------------|--------------------------------|
D|--------------------------------|--------------------------------|
A|7-7-7-7-7-7-7-7-7-7-7-7---------|--------------------------------|
E|------------------------9-9-9-9-|7-7-7-7-7-7-7-7-7-7-7-7-9-9-9-9-|

G|--------------------------------|--------------------------------|
D|--------------------------------|--------------------------------|
A|7-7-7-7-7-7-7-7-7-7-7-7---------|--------------------------------|
E|------------------------9-9-9-9-|7-7-7-7-7-7-7-7-7-7-7-7-9-9-9-9-|
                                               You know you wind me

Verse                    
G|--------------------------------|--------------------------------|
D|--------------------------------|--------------------------------|
A|7-7-7-7-7-7-7-7-7-7-7-7---------|--------------------------------|
E|------------------------9-9-9-9-|7-7-7-7-7-7-7-7-7-7-7-7-9-9-9-9-|
  up               And you reel me in          Oh girl you spin me 

G|--------------------------------|--------------------------------|
D|--------------------------------|--------------------------------|
A|7-7-7-7-7-7-7-7-7-7-7-7---------|------------------------9-9-9-9-|
E|------------------------9-9-9-9-|7-7-7-7-7-7-7-7-7-7-7-7---------|
round.         And then you set me off         You know you wind me

G|--------------------------------|--------------------------------|
D|6-6-6-6-6-6-6-6-----------------|--------------------------------|
A|----------------9-9-9-9-9-9-9-9-|------------------------9-9-9-9-|
E|--------------------------------|7-7-7-7-7-7-7-7-7-7-7-7---------|
up and you reel me in. Oh girl you spin me round. So won't you step right

G|--------------------------------|--------------------------------|
D|6-6-6-6-6-6-6-6-----------------|--------------------------------|
A|----------------9-9-9-9-9-9-9-9-|--------------------------------|
E|--------------------------------|7-7-7-7-7-7-7-7-7-7-7-7-7-7-7-7-| 
  up and won't you cool me off. Coz I  gun for you     Don’t you know

Chorus
G|--------------------------------|--------------------------------|
D|--------------------------------|--------------------------------|
A|--------7-7-7-7-9-9-9-9-9-9-9-9-|--------7-7-7-7-9-9-9-9-9-9-9-9-|
E|7-7-7-7-------------------------|7-7-7-7-------------------------|
  I gun for you    Tell you that I gun for you        Don’t you know 

G|--------------------------------|--------------------------------|
D|--------------------------------|--------------------------------|
A|--------7-7-7-7-9-9-9-9-9-9-9-9-|--------7-7-7-7-9-9-9-9-9-9-9-9-|
E|7-7-7-7-------------------------|7-7-7-7-------------------------|
  I gun for you    Tell you that I gun for you        


Break
  1 e & a 2 e & a
G|----------------|
D|----------------|
A|9-9-9-9---------|
E|--------9-9-9-9-|


Bridge
  1 e & a 2 e & a 3 e & a 4 e & a  1 e & a 2 e & a 3 e & a 4 e & a 
G|--------------------------------|--------------------------------|
D|--------------------------------|--------------------------------|
A|7-7-7-7-7-7-7-7-7-7-7-7---------|--------------------------------|
E|------------------------9-9-9-9-|7-7-7-7-7-7-7-7-7-7-7-7-9-9-9-9-|

G|--------------------------------|--------------------------------|
D|--------------------------------|--------------------------------|
A|7-7-7-7-7-7-7-7-7-7-7-7---------|--------------------------------|
E|------------------------9-9-9-9-|7-7-7-7-7-7-7-7-7-7-7-7-9-9-9-9-|

G|--------------------------------|--------------------------------|
D|--------------------------------|--------------------------------|
A|7-7-7-7-7-7-7-7-7-7-7-7---------|--------------------------------|
E|------------------------9-9-9-9-|7-7-7-7-7-7-7-7-7-7-7-7-9-9-9-9-|

G|--------------------------------|--------------------------------|
D|--------------------------------|--------------------------------|
A|7-7-7-7-7-7-7-7-7-7-7-7---------|--------------------------------|
E|------------------------9-9-9-9-|7-7-7-7-------------------------|

            
            
Suggest correction
Creating personal tab
Creating personal tab
You can edit any tab online and save it as your Personal.

You can edit, replace or remove any tab part or add personal notes – all changes will be seen only by you.

Personal tabs can be accessed anytime from any device, even offline.
Learn more »
Give kudos to tab author, rate the tab!
1 2 3 4 5
comments
print report bad tab
guest
You may want to rate the tab now too:
select rating
Wanna post a correction for this tab? Suggest correction