Oops, an error
Loading. Please wait.

Chilanga Banda bass

578 views 1 this week
no commentswrite comment
1 2 3 4 5
3 more votes to show rating
add to favorites
×
Save as Personal and add changes to this tab that will be seen only by you. Learn more ›
×
You can save this tab as Personal to edit and correct it or add notes. All changes will be seen only by you. Learn more »
launch autoscroll
font size
0
reset
guitar tuner
edit
Autoscroll
slow
fast
+/-
esc
set tempo
stop
RECOMENDACION:
ESTA CANCION ESTA TOCADA EN CONTRABAJO, LO MAS ACERTADO ES TOCARALA
EN UN BAJO SIN TRASTES PARA ALCANZAR UN SONIDO PARECIDO AL GRABADO.
POR LO QUE RECOMIENDO ES QUE EN LAS PARTES DE LETRAS HACER ENFASIS EN
PEQUEÑOS TREMOLOS O PULLS EN LA NOTA.


INTRO Y LETRA:

G |------------------|
D |------------------|
A |-----S/6~~----2~--|
E |----------4/1-----|

CORO:

G |--------10-12-13/15-13-12-13-12-13-------|
D |----/13----------------------------11~---|
A |-----------------------------------------|
E |-----------------------------------------|

G |----------12-----------------12------|
D |-11-13-13----13-11--11-13-13----11---|
A |-------------------------------------|
E |-------------------------------------|

LA ROLA ES MUY SENCILLA, LO QUE SACA DE ONDA ES EL SONIDO DE LA
DIFERENCIA ENTRE EN CONTRABAJO Y UN BAJO SIN TRATSES.

DISFRUTEN!

            
            
Suggest correction
Creating personal tab
Creating personal tab
You can edit any tab online and save it as your Personal.

You can edit, replace or remove any tab part or add personal notes – all changes will be seen only by you.

Personal tabs can be accessed anytime from any device, even offline.
Learn more »
Give kudos to tab author, rate the tab!
1 2 3 4 5
comments
print report bad tab
guest
Wanna post a correction for this tab? Suggest correction