Oops, an error
Loading. Please wait.

El Hombre Impasible tab

56 views 1 this week
no commentswrite comment
1 2 3 4 5
3 more votes to show rating
add to favorites
×
Save as Personal and add changes to this tab that will be seen only by you. Learn more ›
×
You can save this tab as Personal to edit and correct it or add notes. All changes will be seen only by you. Learn more »
launch autoscroll
font size
0
reset
how to read this tab
guitar tuner
edit
Autoscroll
slow
fast
+/-
esc
set tempo
stop
Para que la siguiente transcripción se te oiga igual que el CD
debes tocar los acordes así:

 
   Am     Dm     F     C     Fmaj7    Gm    D#
|---5------5-----1-----1------0-------3-----6--|
|---5------6-----1-----3------1-------3-----8--|
|---5------7-----2-----3------2-------3-----8--|
|---7------7-----3-----3------3-------5-----8--|
|---7------5-----3-----1------3-------5-----6--|
|---5------5-----1-----1------0-------3-----6--|


El siguiente es el RIFF 1

|------------|-----------|-----------------|------------|
|------------|-----------|-----------------|------------|
|------------|-----------|-----------------|------------|
|----5----8--|-7----5----|------5--8--8/10-|-8--8----8--|
|-5----------|-----------|---5-------------|------------|
|------------|-----------|-----------------|------------|


|--------------|--------------|--------------|
|--------------|--------------|--------------|
|--------------|--------------|----7--5--7/9-|
|------5-------|------5--8----|-5------------|
|-----------8--|--------------|--------------|
|--------------|--------------|--------------|


Ahora sí...


EL HOMBRE IMPASIBLE

Am    Dm    F

Am    Dm    F

Am    Dm    F

Am    Dm

F             Am    Dm
Si puedes cantar

F              Am     Dm
y contar mil y una historias

F             Am   Dm   F
Puedes practicar

              Am   Dm
A inventarme mis memorias

Gm         C                Fmaj7  F  Fmaj7   F
Soy el imposible hombre impasible

Fmaj7  F    Am   Dm   F
Venir a gritar

              Am   Dm
y saltar por las paredes

F              Am   Dm   F
transgredir el arte

             D#
vamos yo se bien que puedes

Gm         C                Fmaj7  F  Fmaj7  F
soy el imposible hombre impasible

Gm                                         C
Y lo que odias en mi es parte de tu naturaleza  ------> otra guitarra
                                                        toca el Riff 1

|----------|----------|----------|----------|
|----------|----------|----------|----------|
|-7--------|-6--------|-5--------|-4--------|
|----------|----------|----------|----------|
|-5--------|-4--------|-3--------|-2--------|
|----------|----------|----------|----------|


|----------|----------|-------------|-------|
|----------|----------|----------5--|-6-----|
|-3--------|-4--------|-5-----5-----|-------|
|----------|----------|----5--------|-------|
|-1--------|-2--------|-3-----------|-------|
|----------|----------|-------------|-------|


F    Am    Dm     F    Am    Dm    F    Am    Dm
uuuuuuuuuuuuuuuuuuu aaaaaaaaaaaaaaaaaaaaaaaaaa

F    Am    Dm

F            Am    Dm     F           Am   Dm
Se que seguirás cantando tus verdades mentirosas

F          Am       Dm      F          D#
pero falta más que una canión para cambiar las cosas

Gm           C             Fmaj7  F  Fmaj7  F
en el mundo del hombre impasible

Gm    C    F    Am    Dm
aaaaaaaaaaaaaaaaaaaa

Gm         C                Fmaj7  F  Fmaj7   F
Soy el imposible hombre impasible

Gm     C     Fmaj7   F  Fmaj7  F.


Que la disfrutes! Siempre Tacvba!
Suggest correction
Creating personal tab
Creating personal tab
You can edit any tab online and save it as your Personal.

You can edit, replace or remove any tab part or add personal notes – all changes will be seen only by you.

Personal tabs can be accessed anytime from any device, even offline.
Learn more »
Give kudos to tab author, rate the tab!
1 2 3 4 5
comments
print report bad tab
guest
Wanna post a correction for this tab? Suggest correction