Oops, an error
Loading. Please wait.

El Rio tab

version 2
version 2

Whole song

43 views 6 this week
no commentswrite comment
1 2 3 4 5
3 more votes to show rating
add to favorites
×
Save as Personal and add changes to this tab that will be seen only by you. Learn more ›
×
You can save this tab as Personal to edit and correct it or add notes. All changes will be seen only by you. Learn more »
launch autoscroll
font size
0
reset
how to read this tab
guitar tuner
edit
Autoscroll
slow
fast
+/-
esc
set tempo
stop
El Rio                  Guitarra rítmica


Esta tablatura guarda correspondencia con la de quitarra armónica.


  1                2                3                    
E||----------------|----------------|----------------|
B||-------1--------|-------0--------|-------1--------|
G||-------2--------|-------0--------|-------2--------|
D||-------2--------|-------2--------|-------3--------|
A||--0-------------|----------------|----------------|
E||----------------|--0-------------|--1-------------|


4               5                6                7                     
----------------|----------------|----------------|----------------|
-------0--------|-------1--------|-------0--------|-------1--------|
-------0--------|-------2--------|-------0--------|-------2--------|
-------2--------|-------2--------|-------2--------|-------3--------|
----------------|--0-------------|----------------|----------------|
--0-------------|----------------|--0-------------|--1-------------|


8                9               10               11                       
-----------------|----------------|----------------|----------------|
-----------------|-------1--------|-------0--------|-------1--------|
--1----2----4----|-------2--------|-------0--------|-------2--------|
--2----3----5----|-------2--------|-------2--------|-------3--------|
-----------------|--0-------------|----------------|----------------|
-----------------|----------------|--0-------------|--1-------------|


12                                                                    
----------------|----------------|----------------|----------------|
-------0--------|-------1--------|-------0--------|-------1--------|
-------0--------|-------2--------|-------0--------|-------2--------|
-------2--------|-------2--------|-------2--------|-------3--------|
----------------|--0-------------|----------------|----------------|
--0-------------|----------------|--0-------------|--1-------------|


16                                                                    
----------------|----------------|----------------|----------------|
-------0--------|-------1--------|-------0--------|-------1--------|
-------1--------|-------2--------|-------0--------|-------2--------|
-------0--------|-------2--------|-------2--------|-------3--------|
--2-------------|--0-------------|----------------|----------------|
----------------|----------------|--0-------------|--1-------------|


20                                                                    
----------------|----------------|----------------|----------------|
-------0--------|-------1--------|-------0--------|-------1--------|
-------0--------|-------2--------|-------0--------|-------2--------|
-------2--------|-------2--------|-------2--------|-------3--------|
----------------|--0-------------|----------------|----------------|
--0-------------|----------------|--0-------------|--1-------------|


24                                                                    
----------------|----------------|----------------|----------------|
-------0--------|-------1--------|-------0--------|-------1--------|
-------1--------|-------2--------|-------0--------|-------2--------|
-------0--------|-------2--------|-------2--------|-------3--------|
--2-------------|--0-------------|----------------|----------------|
----------------|----------------|--0-------------|--1-------------|


28                                                                 
----------------|--5------------|--3------------|--1------------|
-------0--------|--5------------|--3------------|--1------------|
-------0--------|--5------------|--4------------|--2------------|
-------2--------|--7------------|--5------------|--3------------|
----------------|--7------------|--5------------|--3------------|
--0-------------|--5------------|--3------------|--1------------|


32                                                dejar sonar                
--0------------|--5------------|--3------------|--1------------|
--0------------|--5------------|--3------------|--1------------|
--1------------|--5------------|--4------------|--2------------|
--2------------|--7------------|--5------------|--3------------|
--2------------|--7------------|--5------------|--3------------|
--0------------|--5------------|--3------------|--1------------|


36               Aquí entra la guitarra armónica                                                
--------------|--5------------|--3------------|--1------------|
--------------|--5------------|--3------------|--1------------|
--------------|--5------------|--4------------|--2------------|
--------------|--7------------|--5------------|--3------------|
--------------|--7------------|--5------------|--3------------|
--------------|--5------------|--3------------|--1------------|


40                                                                
--0------------|--5------------|--3------------|--1------------|
--0------------|--5------------|--3------------|--1------------|
--1------------|--5------------|--4------------|--2------------|
--2------------|--7------------|--5------------|--3------------|
--2------------|--7------------|--5------------|--3------------|
--0------------|--5------------|--3------------|--1------------|


44                                                                
--0------------|--5------------|--3------------|--1------------|
--0------------|--5------------|--3------------|--1------------|
--1------------|--5------------|--4------------|--2------------|
--2------------|--7------------|--5------------|--3------------|
--2------------|--7------------|--5------------|--3------------|
--0------------|--5------------|--3------------|--1------------|


48                                                                   
--0------------|----------------|----------------|----------------|
--0------------|-------2--------|-------0--------|-------2--------|
--1------------|-------2--------|-------1--------|-------2--------|
--2------------|-------2--------|-------2--------|-------4--------|
--2------------|--0-------------|----------------|----------------|
--0------------|----------------|--0-------------|--2-------------|


52                                                                    
----------------|----------------|----------------|----------------|
-------0--------|-------2--------|-------0--------|-------2--------|
-------1--------|-------2--------|-------1--------|-------2--------|
-------2--------|-------2--------|-------2--------|-------4--------|
----------------|--0-------------|----------------|----------------|
--0-------------|----------------|--0-------------|--2-------------|


56                                                                    
----------------|----------------|----------------|----------------|
-------0--------|-------2--------|-------0--------|-------2--------|
-------1--------|-------2--------|-------1--------|-------2--------|
-------2--------|-------2--------|-------2--------|-------4--------|
----------------|--0-------------|----------------|----------------|
--0-------------|----------------|--0-------------|--2-------------|


60                                                                    
----------------|----------------|----------------|----------------|
-------0--------|-------2--------|-------0--------|-------2--------|
-------1--------|-------2--------|-------1--------|-------2--------|
-------2--------|-------2--------|-------2--------|-------4--------|
----------------|--0-------------|----------------|----------------|
--0-------------|----------------|--0-------------|--2-------------|


64                                                                    
----------------|----------------|----------------|----------------|
-------0--------|-------2--------|-------0--------|-------2--------|
-------1--------|-------2--------|-------1--------|-------2--------|
-------2--------|-------2--------|-------2--------|-------4--------|
----------------|--0-------------|----------------|----------------|
--0-------------|----------------|--0-------------|--2-------------|


68                                                                     
----------------|----------------|----------------|----------------|
-------0--------|-------1--------|-------0--------|-------1--------|
-------1--------|-------2--------|-------0--------|-------2--------|
-------2--------|-------2--------|-------2--------|-------3--------|
----------------|--0-------------|----------------|----------------|
--0-------------|----------------|--0-------------|--1-------------|


72                                                                    
----------------|----------------|----------------|----------------|
-------0--------|-------1--------|-------0--------|-------1--------|
-------0--------|-------2--------|-------0--------|-------2--------|
-------2--------|-------2--------|-------2--------|-------3--------|
----------------|--0-------------|----------------|----------------|
--0-------------|----------------|--0-------------|--1-------------|


76                                                                    
----------------|----------------|----------------|----------------|
-------0--------|-------1--------|-------0--------|-------1--------|
-------1--------|-------2--------|-------0--------|-------2--------|
-------0--------|-------2--------|-------2--------|-------3--------|
--2-------------|--0-------------|----------------|----------------|
----------------|----------------|--0-------------|--1-------------|


80                                                                    
----------------|----------------|----------------|----------------|
-------0--------|-------1--------|-------0--------|-------1--------|
-------0--------|-------2--------|-------0--------|-------2--------|
-------2--------|-------2--------|-------2--------|-------3--------|
----------------|--0-------------|----------------|----------------|
--0-------------|----------------|--0-------------|--1-------------|


84                                                                    
----------------|----------------|----------------|----------------|
-------0--------|-------1--------|-------0--------|-------1--------|
-------1--------|-------2--------|-------0--------|-------2--------|
-------0--------|-------2--------|-------2--------|-------3--------|
--2-------------|--0-------------|----------------|----------------|
----------------|----------------|--0-------------|--1-------------|


88                                                                    
----------------|----------------|----------------|----------------|
-------0--------|-------1--------|-------0--------|-------1--------|
-------0--------|-------2--------|-------0--------|-------2--------|
-------2--------|-------2--------|-------2--------|-------3--------|
----------------|--0-------------|----------------|----------------|
--0-------------|----------------|--0-------------|--1-------------|


92                                                                    
----------------|----------------|----------------|----------------|
-------0--------|-------1--------|-------0--------|-------1--------|
-------1--------|-------2--------|-------0--------|-------2--------|
-------0--------|-------2--------|-------2--------|-------3--------|
--2-------------|--0-------------|----------------|----------------|
----------------|----------------|--0-------------|--1-------------|


96                                                                    
----------------|----------------|----------------|----------------|
-------0--------|-------2--------|-------0--------|-------2--------|
-------0--------|-------2--------|-------1--------|-------2--------|
-------2--------|-------2--------|-------2--------|-------4--------|
----------------|--0-------------|----------------|----------------|
--0-------------|----------------|--0-------------|--2-------------|


100                                                                   
----------------|----------------|----------------|----------------|
-------0--------|-------2--------|-------0--------|-------2--------|
-------1--------|-------2--------|-------1--------|-------2--------|
-------2--------|-------2--------|-------2--------|-------4--------|
----------------|--0-------------|----------------|----------------|
--0-------------|----------------|--0-------------|--2-------------|


104                                                                    
----------------|----------------|----------------|----------------|
-------0--------|-------2--------|-------0--------|-------2--------|
-------1--------|-------2--------|-------1--------|-------2--------|
-------2--------|-------2--------|-------2--------|-------4--------|
----------------|--0-------------|----------------|----------------|
--0-------------|----------------|--0-------------|--2-------------|


108                                                                    
----------------|----------------|----------------|----------------|
-------0--------|-------2--------|-------0--------|-------2--------|
-------1--------|-------2--------|-------1--------|-------2--------|
-------2--------|-------2--------|-------2--------|-------4--------|
----------------|--0-------------|----------------|----------------|
--0-------------|----------------|--0-------------|--2-------------|


112                                                                      
----------------||-----------------|----------------|----------------|
-------0--------||--------2--------|-------0--------|-------2--------|
-------1--------||*-------2--------|-------1--------|-------2--------|
-------2--------||*-------2--------|-------2--------|-------4--------|
----------------||---0-------------|----------------|----------------|
--0-------------||-----------------|--0-------------|--2-------------|


116              3x                                   
-----------------||-----------------|----------------|
-------0---------||--------2--------|-------0--------|
-------1--------*||*-------2--------|-------1--------|
-------2--------*||*-------2--------|-------2--------|
-----------------||---0-------------|----------------|
--0--------------||-----------------|--0-------------|


119                               3x                                
----------------|-----------------||--2------------|--2------------|
-------2--------|-------0---------||--3------------|--3------------|
-------2--------|-------1--------*||--4------------|--2------------|
-------4--------|-------2--------*||--4------------|--4------------|
----------------|-----------------||--2------------|--2------------|
--2-------------|--0--------------||--2------------|--2------------|


123                                
--2------------|--------------||
--3------------|--------------||
--3------------|--------------||
--4------------|--------------||
--2------------|--------------||
--2------------|--------------||


Que la disfrutes! Siempre Tacvba!
Suggest correction
Creating personal tab
Creating personal tab
You can edit any tab online and save it as your Personal.

You can edit, replace or remove any tab part or add personal notes – all changes will be seen only by you.

Personal tabs can be accessed anytime from any device, even offline.
Learn more »
Give kudos to tab author, rate the tab!
1 2 3 4 5
comments
print report bad tab
guest
Wanna post a correction for this tab? Suggest correction