Oops, an error
Loading. Please wait.

Eres Tab

version 1
version 1

Whole song

Interactive

88,253 views 48 this week
8 commentsread comments
1 2 3 4 5
x 17
add to favorites
launch autoscroll
font size
0
reset
how to read this tab
guitar tuner
×
Best way to learn
"Eres"
Autoscroll
slow
fast
+/-
esc
set tempo
stop
Song: Eres
Band: Cafe tacuba
Normal Tuning (EADGBE)
This song has 2 guitars (electroacustic and electric). Electric guitar is
guitar 1 and electroacustic is guitar 2.

[INTRO]
   Guitar 1
e|-5--5-5--5------0-0-0-0---0-0-0--0-0-0--------------------------------------|
B|-5--5-5--5------0-0-0-0---5-5-5--5-5-5--------------------------------------|
G|-5----5--5---9----9-9-9---0-0-0--7-7-7--------------------------------------|
D|-5----5--5---9----9-9-9---7---7--6-6-6--------------------------------------|x3
A|-------------x------------6---6--7-7-7--------------------------------------|
E|-------------8------------7---7---------------------------------------------|

  Guitar 2
e|-0-0-0-------0-0--0-0-0---0-0-0--0--0-0------------------------------------|
B|-1-1-1-------1-1--1-1-1---0-0-0--0--0-0------------------------------------|
G|-2-2-2-------2-2--2-2-2---1-1-1--1--1-1------------------------------------|
D|-2---2-------2----2-2-2---2---2--0--0-0------------------------------------|
A|-0---0-------3----3-3-3---2---2--2--2-2------------------------------------|x2
E|--------------------------0---0--0--0-0------------------------------------|

  At third time guitar 2 goes like this
e|------0-------------------------------------0------------------------------|
B|-----1----------------------------0-3-----------3--------------------------|
G|----2---------------------------1------1-----------------------------------|
D|---2---------------------------2---------2----------2----------------------|
A|-0------------------------0-1-2--------------------------------------------|
E|---------------------------------------------------------------------------|

[VERSE]
  Guitar 2
e|------0---0---------------------0-----0------------------------------------|
B|----1---1---1-----------0-3-------3----------------------------------------|
G|---2-----2------------1-----1-------1---(X2)-------------------------------|
D|--2------------------2--------2--------------------------------------------|
A|-0----3---------0-1-2------------------------------------------------------|
E|--------------------------0------------------------------------------------|

  Then it Plays this
e|---1-------1-----0----3--0-------------0---0----------------------------|
B|-----3------3---------------------3-----3-------------------------------|
G|-------2------2------------------1--1----1------------------------------|
D|---0-----0---------------------2-----2----------------------------------|
A|-----------------------------2------------------------------------------|
E|----------------------------------0-------------------------------------|

At second time of verse , guitar 1 enters playing the same as intro..

[CHORUS]
  Guitar 1
e|--5-5-5-5----0-0-0--0-0-0--0-0--0-0----------------------------------------|
B|--6-6-6-6----0-0-0--0-0-0--1-1--1-1----------------------------------------|
G|--7---7-7----1-1-1--1-1-1--2-2--2-2----------------------------------------|
D|--7---7-7----2---2--0-0-0--2-2--2-2----------------------------------------|
A|--5----------2---2--2-2-2--0-0--3-3----------------------------------------|
E|--5----------0---0--0-0-0--------------------------------------------------|

  Guitar 2 the same until last chord
e|---------------------------------------------------------------------------|
B|---------------------------------------------------------------------------|
G|-4----5--------999---------------------------------------------------------|
D|-x----x--------999---------------------------------------------------------|
A|-2----3--------777---------------------------------------------------------|
E|---------------------------------------------------------------------------|

[NOTE] The duration of chords are not shown here, is just to give you and idea
of how  the rythmn pattern goes...

And thats all! the out bridge is the same as intro
Have fun
Any comments to Kimahrironso@hotmail.com
Sl2 a pmc, ppp, and sophie liz and nelda that suggest me to play this song.
Suggest correction
comments
print report bad tab
8 comments total. Showing first comments.
0 reply
Gorila 10 Oct 24, 2005 08:04 AM

Good song

0 reply
chio009 10 Nov 12, 2005 09:34 AM

how do u know this song?

0 reply
samerika 50 Sep 20, 2007 06:34 PM

i don't know

guest
You may want to rate the tab now too:
select rating
Wanna post a correction for this tab? Suggest correction