Oops, an error
Loading. Please wait.

La Locomotora tab

version 1
version 1

Whole song

Interactive

96 views 1 this week
no commentswrite comment
1 2 3 4 5
3 more votes to show rating
add to favorites
×
Save as Personal and add changes to this tab that will be seen only by you. Learn more ›
×
You can save this tab as Personal to edit and correct it or add notes. All changes will be seen only by you. Learn more »
launch autoscroll
font size
0
reset
how to read this tab
guitar tuner
edit
Autoscroll
slow
fast
+/-
esc
set tempo
stop
Parte (1)                         Parte(2)


e|--5-5-5-5-4-4-4-4-|       e|---------------------|
B|------------------|       B|---6-6-6-6?7-7-7-7---|
G|------------------|       G|---------------------|
D|------------------|       D|---------------------|
A|------------------|       A|---------------------|
E|------------------|       E|---------------------|


Parte (3)                      Parte (4)


e|---------------------|      e|---------------------|
B|--5-5-5-5--6-6-6-6?--|      B|--4-4-4-4--6-6-6-6?--|
G|---------------------|      G|---------------------|
D|---------------------|      D|---------------------|
A|---------------------|      A|---------------------|
E|---------------------|      E|---------------------|


Parte (5)
e|--2-2-2-2-2-2-2-2---------------------|
B|---------------------3-3-3-3?2-2-4----|
G|--------------------------------------|
D|--------------------------------------|
A|--------------------------------------|
E|--------------------------------------|

Parte (6)               Parte (7)       Parte (8)

e|--2--------------|  |------------|   |----4------|
B|--3--------------|  |---3--------|   |----3------|
G|--4--------------|  |---4--------|   |----4------|
D|--4--------------|  |---4--------|   |----2------|
A|-----------------|  |------------|   |-----------|
E|-----------------|  |------------|   |-----------|


Parte (9)
e|----------------------------------------------|
B|-----6---------------4----------6-------7-----|
G|-----6---------------5----------6-------8-----|
D|----------------------------------------------|
A|----------------------------------------------|
E|----------------------------------------------|
Porque quien comanda y jala este bagón


Parte (9)
e|-----------------------------------------|
B|---------6------4----------2--------4----|
G|---------6------5----------3--------5----|
D|-----------------------------------------|
A|-----------------------------------------|
E|-----------------------------------------|
Quien conduce el gran locomotor


Parte(10)

e|-----------------------------------------|
B|-----------------6---7---6---------------|
G|---------6---8---6---8---6---8---6---8---|
D|---------6---6---------------6---6---6---|
A|-----------------------------------------|
E|-----------------------------------------|


Habrán de ejecutar la rola como sigue:

Intro:  (1)X3, (2)     (1)X3, (2)


(1)X3                               (3)
Si los simios hicieran música si los reptiles

(1)X3                               (4)
cantaran bajo tu ventana coplas de su propia inspiración

(5)
entonces donde quedo yo.


(1)X3,(2)

(1)X3
Si los arboles.......


(6)x5             (7)X5
Conquisto a la tierra

(6)X5         (7)x5
domino a la luna....

(6)X5     (7)X5      (6)X5         (7)X5    (6)X5   (7)X5    (6)X5   (9)
descubrio el fuego y los siete mares


(9)
Por que quien comanda y jala.....
(10)

TERMNA CON ((6)X5,(7)X5))X5, (8).
Suggest correction
Creating personal tab
Creating personal tab
You can edit any tab online and save it as your Personal.

You can edit, replace or remove any tab part or add personal notes – all changes will be seen only by you.

Personal tabs can be accessed anytime from any device, even offline.
Learn more »
Give kudos to tab author, rate the tab!
1 2 3 4 5
comments
print report bad tab
guest
Wanna post a correction for this tab? Suggest correction