Oops, an error
Loading. Please wait.

La Zonaja tab

42 views 1 this week
no commentswrite comment
1 2 3 4 5
3 more votes to show rating
add to favorites
×
Save as Personal and add changes to this tab that will be seen only by you. Learn more ›
×
You can save this tab as Personal to edit and correct it or add notes. All changes will be seen only by you. Learn more »
launch autoscroll
font size
0
reset
how to read this tab
guitar tuner
edit
Autoscroll
slow
fast
+/-
esc
set tempo
stop
NOTA: Esta transcripcion es la primera que hago, esta completa 
y se eschuca muy  la dedico con cariño al '302','5-B' y a Jaqueline.


+ = rasgueo hacia arriva
* = rasgueo hacia abajo
x = despues tocar las notas apagar el sonido  
f = full jalar hacia arriba

Intro
(Gtr 1)


Intro:  
       G                  
e |-----------------------------|
B |-----------------------------|
G |---------4---------7--5------| 8 veces.
D |----5--7---7--5--7-----------|
A |-----------------------------|
E |-----------------------------|
  

R1
       G                         Em       
       *  *  *  *  *  *  * + *   *  *  *  *      *+*
e |----7x-7x-7x-7x-7x-7x-7-7-7---7x-7x-7x-7x------0--------|
B |----8x-8x-8x-8x-8x-8x-8-8-8---8x-8x-8x-8x10-8-9-9-------|
G |----7x-7x-7x-7x-7x-7x-7-7-7---9x-9x-9x-9x-----8-8-------| 2 veces.
D |--------------------------------------------------------|
A |--------------------------------------------------------|
E |--------------------------------------------------------|
        Prostitutas salen del lugar de los hechos
        los amanetes prohibidos se aman sin velo
        es muy tarde ya si yo sé que es muy tarde 
        y una decadencia se respira en el aire.     'huaaa'

intro 
       
        El alcohol que da otro aspecto a las cosas,
        aun la calle parece muy transitada, 
        una zona en que todo está vivo
        vivo como el fantasma de un amigo   
R2
       F             Em                                  D    G 
e |---------------------7--------------------------------2----3---|
B |------10---------------8------------------------------3----3---|
G |----9----9----------9----9----------------------------2----4---| 
D |-----------------------------------------------------------5---|
A |-----------------------------------------------------------5---|
E |-----------------------------------------------------------3---|
                                                        3-
     1    Es una nostalgia, 
     2    una decadencia                                  
     3-   algo divertido,   3-  pero es un gran miedo a la soledad  

intro 
                          
solo: 

e |----7-7-7-10---8-7-5-3--0--5-7-5--3f-7-7-7--10-8-7-5--3-0-3-5-7-3f----|
B |----8-8-8--8---8-8-7-5--0--7-8-7--5f-8-8-8---8-8-8-7--5-0-5-7-8-5f----|
G |----------------------------------------------------------------------| 
D |----------------------------------------------------------------------|
A |----------------------------------------------------------------------|
E |----------------------------------------------------------------------|

R1
 
 No se apagan nunca aqui las grandes luces, 
 amanece y nunca nadie se da cuenta,
 parece que otro dia va comenzar, otra vez,
 pero a mi no me veran hasta el anocheser.

R2

Es una nostalgia, un morir muy joven, 
un olor a antro, del cual nunca puedo yo escapar.
                                                                         
intro fin

Si encuentran errores, si no le entienden o les interesa tabs 
de los beatles comunicarse por favor.'TACUBOS POR SIEMPRE'

            
            
Suggest correction
Creating personal tab
Creating personal tab
You can edit any tab online and save it as your Personal.

You can edit, replace or remove any tab part or add personal notes – all changes will be seen only by you.

Personal tabs can be accessed anytime from any device, even offline.
Learn more »
Give kudos to tab author, rate the tab!
1 2 3 4 5
comments
print report bad tab
guest
Wanna post a correction for this tab? Suggest correction