Oops, an error
Loading. Please wait.

Las Persianas drums

version 1
version 1

Whole song

Interactive

19 views 1 this week
no commentswrite comment
1 2 3 4 5
3 more votes to show rating
add to favorites
×
Save as Personal and add changes to this tab that will be seen only by you. Learn more ›
×
You can save this tab as Personal to edit and correct it or add notes. All changes will be seen only by you. Learn more »
launch autoscroll
font size
0
reset
guitar tuner
edit
Autoscroll
slow
fast
+/-
esc
set tempo
stop
C||--------------------|------------------|--------------------|------------|
C||--------------------|------------------|--------------------|--57--------|
C||--45--42-42-42--42--|--45--42--45--42--|--45--42-42-42--42--|--45--------|
C||--------------------|------------------|--------------------|------------|
C||--------------------|------------------|--------------------|------------|
C||--------------------|------------------|--------------------|------------|


                                                                          
--------------------|------------------|--------------------|------------|
--------------------|------------------|--------------------|--57--------|
--45--42-42-42--42--|--45--42--45--42--|--45--42-42-42--42--|--45--------|
--------------------|------------------|--------------------|------------|
--------------------|------------------|--------------------|------------|
--------------------|------------------|--------------------|------------|


                                        3x                    
|-------------------|-------------------||-------------------|
|-------------------|-------------------||-------------------|
|*------------------|------------------*||*------------------|
|*--36------36------|--36------35------*||*--36------36------|
|---35--40--35--40--|--35--40--35--40---||---35--40--35--40--|
|-------------------|-------------------||-------------------|


                                                           4x                   
------------------||-------------------|-------------------||------------------|
------------------||-------------------|-------------------||------------------|
------------------||*------------------|------------------*||------------------|
--36------35------||*--36------36------|--36------35------*||--36------36------|
--35--40--35--40--||---35--40--35--40--|--35--40--35--40---||--35--40--35--40--|
------------------||-------------------|-------------------||------------------|


                                                                              
------------------|------------------|------------------||-------------------|
------------------|------------------|------------------||-------------------|
------------------|------------------|------------------||*------------------|
--36------35------|--36------36------|--36------35------||*--36------36------|
--35--40--35--40--|--35--40--35--40--|--35--40--35--40--||---35--40--35--40--|
------------------|------------------|------------------||-------------------|


                                                           4x                   
------------------||-------------------|-------------------||------------------|
------------------||-------------------|-------------------||------------------|
------------------||*------------------|------------------*||------------------|
--36------35------||*--36------36------|--36------35------*||--36------36------|
--35--40--35--40--||---35--40--35--40--|--35--40--35--40---||--35--40--35--40--|
------------------||-------------------|-------------------||------------------|


                                                                      
------------------|------------------|------------|------------------|
------------------|------------------|------------|------------------|
------------------|------------------|--57--------|------------------|
--36------35------|--36------36------|--36--------|--36------36------|
--35--40--35--40--|--35--40--35--40--|--35--------|--35--40--35--40--|
------------------|------------------|------------|------------------|


                                                                            
------------------|------------------|------------------|------------------|
------------------|------------------|------------------|------------------|
------------------|------------------|------------------|------------------|
--36------35------|--36------36------|--36------35------|--36------36------|
--35--40--35--40--|--35--40--35--40--|--35--40--35--40--|--35--40--35--40--|
------------------|------------------|------------------|------------------|


                                                                            
------------------|------------------|------------------|------------------|
------------------|------------------|------------------|------------------|
------------------|------------------|------------------|------------------|
--36------35------|--36------36------|--36------35------|--36------36------|
--35--40--35--40--|--35--40--35--40--|--35--40--35--40--|--35--40--35--40--|
------------------|------------------|------------------|------------------|


                                                                            
------------------|------------------|------------------|------------------|
------------------|------------------|------------------|------------------|
------------------|------------------|------------------|------------------|
--36------35------|--36------36------|--36------35------|--36------36------|
--35--40--35--40--|--35--40--35--40--|--35--40--35--40--|--35--40--35--40--|
------------------|------------------|------------------|------------------|


                                                                              
------------------|------------------|------------------|--------------------|
------------------|------------------|------------------|--57----------------|
------------------|------------------|------------------|--45--42-42-42--42--|
--36------35------|--36------36------|--36------35------|--------------------|
--35--40--35--40--|--35--40--35--40--|--35--40--35--40--|--------------------|
------------------|------------------|------------------|--------------------|


                                                                          
------------------|--------------------|------------|--------------------|
------------------|--------------------|--57--------|--------------------|
--45--42--45--42--|--45--42-42-42--42--|--45--------|--45--42-42-42--42--|
------------------|--------------------|------------|--------------------|
------------------|--------------------|------------|--------------------|
------------------|--------------------|------------|--------------------|


                                                                          
------------------|--------------------|------------||-------------------|
------------------|--------------------|--57--------||-------------------|
--45--42--45--42--|--45--42-42-42--42--|--45--------||*------------------|
------------------|--------------------|------------||*--36------36------|
------------------|--------------------|------------||---35--40--35--40--|
------------------|--------------------|------------||-------------------|


                                                            4x
-------------------||-------------------|-------------------||
-------------------||-------------------|-------------------||
------------------*||*------------------|------------------*||
--36------35------*||*--36------36------|--36------35------*||
--35--40--35--40---||---35--40--35--40--|--35--40--35--40---||
-------------------||-------------------|-------------------||


                                                                      
------------------|------------------|------------------|------------|
------------------|------------------|------------------|------------|
------------------|------------------|------------------|--57--------|
--36------36------|--36------35------|--36------36------|--36--------|
--35--40--35--40--|--35--40--35--40--|--35--40--35--40--|--35--------|
------------------|------------------|------------------|------------|


                                                              
|-------------------|-------------------||-------------------|
|-------------------|-------------------||-------------------|
|*------------------|------------------*||*------------------|
|*--36------36------|--36------35------*||*--36------36------|
|---35--40--35--40--|--35--40--35--40---||---35--40--35--40--|
|-------------------|-------------------||-------------------|


                   4x                                                         
-------------------||------------------|------------------|------------------|
-------------------||------------------|------------------|------------------|
------------------*||------------------|------------------|------------------|
--36------35------*||--36------36------|--36------35------|--36------36------|
--35--40--35--40---||--35--40--35--40--|--35--40--35--40--|--35--40--35--40--|
-------------------||------------------|------------------|------------------|


                                                                            
------------------|------------------|------------------|------------------|
------------------|------------------|------------------|------------------|
------------------|------------------|----------57------|------------------|
--36------35------|--36------36------|--36------35------|--36------36------|
--35--40--35--40--|--35--40--35--40--|--35--40--35--40--|--35--40--35--40--|
------------------|------------------|------------------|------------------|


                                                                            
------------------|------------------|------------------|------------------|
------------------|------------------|------------------|------------------|
----------57------|------------------|----------57------|------------------|
--36------35------|--36------36------|--36------35------|--36------36------|
--35--40--35--40--|--35--40--35--40--|--35--40--35--40--|--35--40--35--40--|
------------------|------------------|------------------|------------------|


                                                                            
------------------|------------------|------------------|------------------|
------------------|------------------|------------------|------------------|
----------57------|------------------|----------57------|------------------|
--36------35------|--36------36------|--36------35------|--36------36------|
--35--40--35--40--|--35--40--35--40--|--35--40--35--40--|--35--40--35--40--|
------------------|------------------|------------------|------------------|


                                                                            
------------------|------------------|------------------|------------------|
------------------|------------------|------------------|------------------|
----------57------|------------------|----------57------|------------------|
--36------35------|--36------36------|--36------35------|--36------36------|
--35--40--35--40--|--35--40--35--40--|--35--40--35--40--|--35--40--35--40--|
------------------|------------------|------------------|------------------|


                                                                            
------------------|------------------|------------------|------------------|
------------------|------------------|------------------|------------------|
----------57------|------------------|----------57------|------------------|
--36------35------|--36------36------|--36------35------|--36------36------|
--35--40--35--40--|--35--40--35--40--|--35--40--35--40--|--35--40--35--40--|
------------------|------------------|------------------|------------------|


                                                                            
------------------|------------------|------------------|------------------|
------------------|------------------|------------------|------------------|
----------57------|------------------|----------57------|------------------|
--36------35------|--36------36------|--36------35------|--36------36------|
--35--40--35--40--|--35--40--35--40--|--35--40--35--40--|--35--40--35--40--|
------------------|------------------|------------------|------------------|


                                                                            
------------------|------------------|------------------|------------------|
------------------|------------------|------------------|------------------|
----------57------|------------------|----------57------|------------------|
--36------35------|--36------36------|--36------35------|--36------36------|
--35--40--35--40--|--35--40--35--40--|--35--40--35--40--|--35--40--35--40--|
------------------|------------------|------------------|------------------|


                                                                            
------------------|------------------|------------------|------------------|
------------------|------------------|------------------|------------------|
----------57------|------------------|----------57------|------------------|
--36------35------|--36------36------|--36------35------|--36------36------|
--35--40--35--40--|--35--40--35--40--|--35--40--35--40--|--35--40--35--40--|
------------------|------------------|------------------|------------------|


                                                                
------------------|------------|----------||-------------------|
------------------|------------|----------||-------------------|
----------57------|--57--------|----------||*------------------|
--36------35------|--36--------|----------||*--36------36------|
--35--40--35--40--|--35--------|----------||---35--40--35--40--|
------------------|------------|----------||-------------------|


                                                                            
------------------|------------------|------------------|------------------|
------------------|------------------|------------------|------------------|
------------------|------------------|------------------|------------------|
--36------35------|--36------36------|--36------35------|--36------36------|
--35--40--35--40--|--35--40--35--40--|--35--40--35--40--|--35--40--35--40--|
------------------|------------------|------------------|------------------|


                                                                            
------------------|------------------|------------------|------------------|
------------------|------------------|------------------|------------------|
------------------|------------------|------------------|------------------|
--36------35------|--36------36------|--36------35------|--36------36------|
--35--40--35--40--|--35--40--35--40--|--35--40--35--40--|--35--40--35--40--|
------------------|------------------|------------------|------------------|


                                                                            
------------------|------------------|------------------|------------------|
------------------|------------------|------------------|------------------|
------------------|------------------|------------------|------------------|
--36------35------|--36------36------|--36------35------|--36------36------|
--35--40--35--40--|--35--40--35--40--|--35--40--35--40--|--35--40--35--40--|
------------------|------------------|------------------|------------------|


                                                                               
------------------|------------------|-------------------||-------------------|
------------------|------------------|-------------------||-------------------|
------------------|------------------|------------------*||*------------------|
--36------35------|--36------36------|--36------35------*||*--36------36------|
--35--40--35--40--|--35--40--35--40--|--35--40--35--40---||---35--40--35--40--|
------------------|------------------|-------------------||-------------------|


                                                                            
------------------|------------------|------------------|------------------|
------------------|------------------|------------------|------------------|
------------------|------------------|------------------|------------------|
--36------35------|--36------36------|--36------35------|--36------36------|
--35--40--35--40--|--35--40--35--40--|--35--40--35--40--|--35--40--35--40--|
------------------|------------------|------------------|------------------|


                                                                            
------------------|------------------|------------------|------------------|
------------------|------------------|------------------|------------------|
------------------|------------------|------------------|------------------|
--36------35------|--36------36------|--36------35------|--36------36------|
--35--40--35--40--|--35--40--35--40--|--35--40--35--40--|--35--40--35--40--|
------------------|------------------|------------------|------------------|


                                                                            
------------------|------------------|------------------|------------------|
------------------|------------------|------------------|------------------|
------------------|------------------|------------------|------------------|
--36------36------|--36------35------|--36------36------|--36------35------|
--35--40--35--40--|--35--40--35--40--|--35--40--35--40--|--35--40--35--40--|
------------------|------------------|------------------|------------------|


                                                           
------------------|------------------|-------------------||
------------------|------------------|-------------------||
------------------|------------------|------------------*||
--36------36------|--36------35------|--36------36------*||
--35--40--35--40--|--35--40--35--40--|--35--40--35--40---||
------------------|------------------|-------------------||


                    3x                         
--------------------||------------|----------||
--------------------||------------|----------||
*------------------*||--57--------|----------||
*--36------35------*||--36--------|----------||
---35--40--35--40---||--35--------|----------||
--------------------||------------|----------||

            
            
Suggest correction
Creating personal tab
Creating personal tab
You can edit any tab online and save it as your Personal.

You can edit, replace or remove any tab part or add personal notes – all changes will be seen only by you.

Personal tabs can be accessed anytime from any device, even offline.
Learn more »
Give kudos to tab author, rate the tab!
1 2 3 4 5
comments
print report bad tab
guest
Wanna post a correction for this tab? Suggest correction