Oops, an error
Loading. Please wait.

Mediodia Tab

5,700 views 6 this week
no commentswrite comment
1 2 3 4 5
please rate
add to favorites
launch autoscroll
font size
0
reset
how to read this tab
guitar tuner
Autoscroll
slow
fast
+/-
esc
set tempo
stop
Help us to improve Ultimate-Guitar.com Take our survey!
×
Author
Difficulty
intermediate


CAFE TACUBA - MEDIODIA



===Intro:

.......D......................D*

e|-2--2-2-2-2--2-2-2-4--4-4-4-4--4-4-4-|
B|-3--3-3-3-3--3-3-3-3--3-3-3-3--3-3-3-|
G|-2--2-2-2-2--2-2-2-2--2-2-2-2--2-2-2-| *x2
D|--------------------------------------|
A|--------------------------------------|
E|--------------------------------------|



===Verse:
A
e|----------0--|
B|----2--------|
G|-------2-----| *x8
D|-2-----------|
A|-------------|
E|-------------|



.....A...................A..........................A..................A

Jala una silla,sientate a un lado aqui,

.....A....................A.............................A.................A

mira las plantas como reaniman la vista alrededor



D D
e|-2------------2---------|
B|-3------------3---------|
G|-2------------2---------|
D|-0------------0---------|
A|------------------------|
E|------------------------|


===Verse (repeat):
A
e|----------0--|
B|----2--------|
G|-------2-----| *x8
D|-2-----------|
A|-------------|
E|-------------|

A A A A
Jala una silla,sientate a un lado aqui,
A A A A
mira las plantas como reaniman la vista alrededor


===Chorus:

D D*
e|-2--2-2-2-2--2-2-2-4--4-4-4-4--4-4-4-|
B|-3--3-3-3-3--3-3-3-3--3-3-3-3--3-3-3-|
G|-2--2-2-2-2--2-2-2-2--2-2-2-2--2-2-2-| 
D|--------------------------------------| *x2
A|--------------------------------------|
E|--------------------------------------|

A
e|-0-0-0-0-0-0-0-0-0--0-----0-|
B|-2-2-2-2-2-2-2-2--2-2---2-2-|
G|-2-2-2-2-2-2-2-2----2-----2-|
D|-2-2-2-2-2-2-2-2----2-----2-|
A|-0-0-0-0-0-0-0-0----0--0--0-|
E|-----------------------------|

D D*
e|-2--2-2-2-2--2-2-2-4--4-4-4-4--4-4-4-|
B|-3--3-3-3-3--3-3-3-3--3-3-3-3--3-3-3-|
G|-2--2-2-2-2--2-2-2-2--2-2-2-2--2-2-2-| 
D|--------------------------------------| *x2
A|--------------------------------------|
E|--------------------------------------|


D..........D*..................D........................D*...................A 

.......parece mentira los pajaros vuelan hasta mi balcon



D...........D*..................D.....................D*

......aaaaaaahhh __.......aaaaaahhhhh__



===2nd Verse:

(Notes with no significant rythm)

* * *
e|---------5--------0-----------5-----|
B|----2-----------2-----------------2-|
G|-2--------------------2-------------|
D|------------------------------------|
A|------------------------------------|
E|------------------------------------|


*

Mira los niños, juegan con globos de cualquier color

*....................................................* 

mira la gente, compran helados de cualquier sabor.



===Chorus:

D D*
e|-2--2-2-2-2--2-2-2-4--4-4-4-4--4-4-4-|
B|-3--3-3-3-3--3-3-3-3--3-3-3-3--3-3-3-|
G|-2--2-2-2-2--2-2-2-2--2-2-2-2--2-2-2-| 
D|--------------------------------------| *x2
A|--------------------------------------|
E|--------------------------------------|

A
e|-0-0-0-0-0-0-0-0-0--0-----0-|
B|-2-2-2-2-2-2-2-2--2-2---2-2-|
G|-2-2-2-2-2-2-2-2----2-----2-|
D|-2-2-2-2-2-2-2-2----2-----2-|
A|-0-0-0-0-0-0-0-0----0--0--0-|
E|-----------------------------|

D D*
e|-2--2-2-2-2--2-2-2-4--4-4-4-4--4-4-4-|
B|-3--3-3-3-3--3-3-3-3--3-3-3-3--3-3-3-|
G|-2--2-2-2-2--2-2-2-2--2-2-2-2--2-2-2-| 
D|--------------------------------------| *x2
A|--------------------------------------|
E|--------------------------------------|


===

....A...D...A...D...A...D...A..D..D.D.D.D

e|-0--2---0--2---0--2---0--2--2-2-2-2--
B|-2--3---2--3---2--3---2--3--3-3-3-3--
G|-2--2---2--2---2--2---2--2--2-2-2-2--
D|-2--0---2--0---2--0---2--0--0-0-0-0--
A|-0------0------0-----.-0---------------
E|---------------------------------------



D.................D*..................D.....................D*.........................A

Parece mentira, que haya tanta vida en este lugar que felicidad

D...............D*..............D..............D*...................A

parece mentira, que entre tanta gente en esta ciudad

D=======A======D=======A=====D========A

no tenga a nadie con quien compartir la vista desde mi casa

..........D-D-D-D

este sabadooo...





===end:



A
e|-0-||-0-||-0-|
B|-2-||-3-||-0-|
G|-2-||-2-||-2-|
D|-2-||-2-||-2-|
A|-0-||-0-||-0-|
E|---| |---||---|


*other===

A-A-D-A
e|-0-0-2-0-|
B|-2-2-3-2-|
G|-2-2-2-2-|
D|-2-2-0-2-|
A|-0-0---0-|
E|----------|
***********************************************
Clean guitar in all song, you can use a Delay to give a great body in the guitar notes.
============

myspace.com/albinu
bg3d@hotmail.com

=)
Suggest correction
What's this?
You can suggest a correction to this tab. Community and Mods will review your correction and vote to approve or reject it.
comments
We did not receive enough feedback on this tab! Please rate:
print report bad tab
1 2 3 4 5
guest
You may want to rate the tab now too:
select rating
Please do not post tabs as comments. Select "correction" instead!