Oops, an error
Loading. Please wait.

Olita Del Altamar tab

version 2
version 2

Whole song

110 views 1 this week
no commentswrite comment
1 2 3 4 5
3 more votes to show rating
add to favorites
×
Save as Personal and add changes to this tab that will be seen only by you. Learn more ›
×
You can save this tab as Personal to edit and correct it or add notes. All changes will be seen only by you. Learn more »
launch autoscroll
font size
0
reset
how to read this tab
guitar tuner
edit
Autoscroll
slow
fast
+/-
esc
set tempo
stop
  Em G  Am Bm
|-3--3--5--7-|
|-5--3--5--7-|
|-4--4--5--7-|
|-x--5--7--9-|
|-x--5--7--9-|
|-x--3--5--7-|

|----------------------|-7-10-7--7-7---------15-12-|
|-----------------7-8--|-------------10---12-------|
|----9---9--9-7-9------|---------------------------|
|----------------------|---------------------------|
|----------------------|---------------------------|
|----------------------|---------------------------|

|-------------------------------|
|-15-12-------------------------|
|-------14-12----------12-------|
|-------------14-12-14----14--14|
|-------------------------------|
|-------------------------------|

Em                  G        Am           Bm      Em
Ay olita del altamar dime si algún día tu volverás
Em                 G          Am           Bm     Em
Ay olita del altamar dime si algún día tu volverás

G           Am     Em G         Am     Em
Ay olita del altamar ay olita del altamar
         Am         Bm     Em
dime si algún día regresarás
G           Am     Em G         Am     Em
Ay olita del altamar ay olita del altamar
         Am          Bm     Em-G-Am-Bm
dime si algún día tu volverás

Em                G      Am           Bm          Em
Arenita de mi playa si algún día con la espuma del mar
Em               G         Am          Bm        Em
Arenita de mi playa si algún día la miras regresar
Em              G            Am          Bm       Em
Caminito de la vida mira que me has traído hasta acá
Em                G            Am     Bm      Em
Caminito de mi vida hasta donde tu me llevarás

G            Am     Em G         Am     Em
Ay olita del altamar ay olita del altamar
          Am       Bm       Em
si en mi corazón tu rompieras
G          Am     Em G         Am      Em
Ay olita del altamar ay olita del altamar
           Am         Bm  Em-G-Am-Bm-Em
si en tu corazón yo viviera

|----------------------|-7-10-7--7-7---------15-12-|
|-----------------7-8--|-------------10---12-------|
|----9---9--9-7-9------|---------------------------|
|----------------------|---------------------------|
|----------------------|---------------------------|
|----------------------|---------------------------|

|-------------------------------|
|-15-12-------------------------|
|-------14-12----------12-------|
|-------------14-12-14----14--14|
|-------------------------------|
|-------------------------------|

Em                  G       Am         Bm          Em
Ay olita del altamar con el viento yo fui y te busqué
Em                 G           Am          Bm      Em
Ay olita del altamar con el tiempo después naufragué

G           Am    Em  G        Am       Em
Ay olita del altamar ay olita del altamar
        Am          Bm      Em
dime si algún día regresarás
G           Am     Em G        Am      Em
Ay olita del altamar ay olita del altamar
         Am         Bm      Em
dime si algún día tu volverás.

|----------------------|-7-10-7--7-7---------15-12-|
|-----------------7-8--|-------------10---12-------|
|----9---9--9-7-9------|---------------------------|
|----------------------|---------------------------|
|----------------------|---------------------------|
|----------------------|---------------------------|

|-------------------------------|
|-15-12-------------------------|
|-------14-12----------12-------|
|-------------14-12-14----14--14|
|-------------------------------|
|-------------------------------|x2

Em-G-Am-Bm-Em x2

 Hermanos, hermanas, nuestra vida una olita, la mar nuestra abuelita
|----------------------|-7-10-7--7-7---------15-12-|
|-----------------7-8--|-------------10---12-------|
|----9---9--9-7-9------|---------------------------|
|----------------------|---------------------------|
|----------------------|---------------------------|
|----------------------|---------------------------|

|-------------------------------|
|-15-12-------------------------|
|-------14-12----------12-------|
|-------------14-12-14----14--14|
|-------------------------------|
|-------------------------------|


 Regresemos alegres pues de regreso hacia la inmensidad.
|----------------------|-7-10-7--7-7---------15-12-|
|-----------------7-8--|-------------10---12-------|
|----9---9--9-7-9------|---------------------------|
|----------------------|---------------------------|
|----------------------|---------------------------|
|----------------------|---------------------------|

|-------------------------------|
|-15-12-------------------------|
|-------14-12----------12-------|
|-------------14-12-14----14~~--|
|-------------------------------|
|-------------------------------|

            
            
Suggest correction
Creating personal tab
Creating personal tab
You can edit any tab online and save it as your Personal.

You can edit, replace or remove any tab part or add personal notes – all changes will be seen only by you.

Personal tabs can be accessed anytime from any device, even offline.
Learn more »
Give kudos to tab author, rate the tab!
1 2 3 4 5
comments
print report bad tab
guest
Wanna post a correction for this tab? Suggest correction