Oops, an error
Loading. Please wait.

Pez/verde tab

190 views 9 this week
no commentswrite comment
1 2 3 4 5
3 more votes to show rating
add to favorites
×
Save as Personal and add changes to this tab that will be seen only by you. Learn more ›
×
You can save this tab as Personal to edit and correct it or add notes. All changes will be seen only by you. Learn more »
launch autoscroll
font size
0
reset
how to read this tab
guitar tuner
edit
Autoscroll
slow
fast
+/-
esc
set tempo
stop
Esta canción es muy fácil y me suena muy bien como la transcribí.
Primero te pongo un par de riffs que se pueden tocar con otra
guitarra; en la tablatura se señala donde van, pero oye el CD
para que la entiendas mejor.

Riff I
--------------------------------|--------------------------------|
------7-8-7---------------------|------7-8-7---------------------|
--7-9-------9-7---7-------------|--7-9-------9-7---7-------------|
----------------9---9-7-5-7--5--|----------------9---9-7-5-7--5--|
--------------------------------|--------------------------------|
--------------------------------|--------------------------------|


Riff II
--------------------------------|------------------|
------7-8-7---------------------|------------------|
--7-9-------9-7---7-------------|------------------|
----------------9---9-7-5-7h-5--|------------------|
--------------------------------|------------------|
--------------------------------|------------------|
                                             
--------------------------|------------------|
--------------------------|------------------|
--------4--5--7--4--------|------------------|
--5--7--------------7h-5--|------------------|
--------------------------|------------------|
--------------------------|------------------|


00   000  0000
0 0  0      0
00   000   0
0    0    0
0    000  0000

                                                                    
E||------------------|------------------|--------------------------|
B||------------------|------------------|--------------------------|
G||------------------|------------------|--------------------------|
D||------------------|------------------|-----5-----5-----5-----5--|
A||------------------|------------------|--------3-----2-----------|
E||------------------|------------------|--3-----------------2-----|


                                                      
--------------------------|--------------------------|
--------------------------|--------------------------|
--------------------------|--------------------------|
-----5-----5-----5-----5--|-----5-----5-----5-----5--|
--------3-----2-----------|--------3-----2-----------|
--3-----------------2-----|--3-----------------2-----|

                      Este no es un día...
                                                      
--------------------------|--------------------------|
--------------------------|--------------------------|
--------------------------|--------------------------|
-----5-----5-----5-----5--|-----5-----5-----5-----5--|
--------3-----2-----------|--------3-----2-----------|
--3-----------------2-----|--3-----------------2-----|


                                                      
--------------------------|--------------------------|
--------------------------|--------------------------|
--------------------------|--------------------------|
-----5-----5-----5-----5--|-----5-----5-----5-----5--|
--------3-----2-----------|--------3-----2-----------|
--3-----------------2-----|--3-----------------2-----|


                                                      
--------------------------|--------------------------|
--------------------------|--------------------------|
--------------------------|--------------------------|
-----5-----5-----5-----5--|-----5-----5-----5-----5--|
--------3-----2-----------|--------3-----2-----------|
--3-----------------2-----|--3-----------------2-----|


                                                                     
--------------------------|--0--------0--------|--3--------1--------|
--------------------------|--0--------2--------|--0--------1--------|
--------------------------|--1--------2--------|--0--------2--------|
-----5-----5-----5-----5--|--2--------2--------|--0--------3--------|
--------3-----2-----------|--2--------0--------|--2--------3--------|
--3-----------------2-----|--0-----------------|--3--------1--------|

                      Siento que me han...
                                                      
-----3-----3-----3-----3--|-----3-----3-----3-----3--|
-----0-----0-----0-----0--|-----0-----0-----0-----0--|
-----0-----0-----0-----0--|-----0-----0-----0-----0--|
-----0-----0-----0-----0--|-----0-----0-----0-----0--|
-------3------2-----------|-------3------2-----------|
---3----------------2-----|---3----------------2-----|

  so... lo A MI     (Riff I)
                                                                           
-----3-----3-----3-----3--|-----3-----3-----3-----3--|
-----0-----0-----0-----0--|-----0-----0-----0-----0--|
-----0-----0-----0-----0--|-----0-----0-----0-----0--|
-----0-----0-----0-----0--|-----0-----0-----0-----0--|
-------3------2-----------|-------3------2-----------|
---3----------------2-----|---3----------------2-----|

 Esto alguien...

--0--------0--------|
--0--------2--------|
--1--------2--------|
--2--------2--------|
--2--------0--------|
--0--------0--------|

Otra vez en mi...
                                                               
--3--------1--------|--0--------0--------|--3--------1--------|
--0--------1--------|--0--------2--------|--0--------1--------|
--0--------2--------|--1--------2--------|--0--------2--------|
--0--------3--------|--2--------2--------|--0--------3--------|
--2--------3--------|--2--------0--------|--2--------3--------|
--3--------1--------|--0-----------------|--3--------1--------|


                                                      
-----0-----0-----0-----0--|-----0-----0-----0-----0--|
-----1-----1-----1-----1--|-----1-----1-----1-----1--|
-----0-----0-----0-----0--|-----2-----2-----2-----2--|
-----2-----2-----2-----2--|-----1-----1-----1-----1--|
--3--3-----3--3--3-----3--|-----3--3--3-----3--3--3--|
--------3-----------3-----|--1-----------1-----------|

Y ahora creo...
                                                      
-----0-----0-----0-----0--|-----0-----0-----0-----0--|
-----1-----1-----1-----1--|-----1-----1-----1-----1--|
-----2-----2-----2-----2--|-----0-----0-----0-----0--|
-----2-----2-----2-----2--|-----2-----2-----2-----2--|
--0--0-----0--0--0-----0--|--3--3--3--3--3--3--3--3--|
--------0-----------0-----|--------------------------|


                                                      
-----0-----0-----0-----0--|-----1-----1-----1-----1--|
-----1-----1-----1-----1--|-----1-----1-----1-----1--|
-----0-----0-----0-----0--|-----2-----2-----2-----2--|
-----2-----2-----2-----2--|-----3-----3-----3-----3--|
--3--3-----3--3--3-----3--|-----3--3--3-----3--3--3--|
--------3-----------3-----|--1-----------1-----------|


                                                      
-----1-----1-----1-----1--|-----1-----1-----1-----1--|
-----2-----2-----2-----2--|-----3-----3-----3-----3--|
-----1-----1-----1-----1--|-----3-----3-----3-----3--|
-----3-----3-----3-----3--|-----3-----3-----3-----3--|
--4--4--4--4--4--4--4--4--|--1-----1-----1-----1-----|
--------------------------|--------------------------|


                                                              
-----3-----3-----3-----3--|-----3-----3-----3-----3--|
-----0-----0-----0-----0--|-----0-----0-----0-----0--|
-----0-----0-----0-----0--|-----0-----0-----0-----0--|
-----0-----0-----0-----0--|-----0-----0-----0-----0--|
-------3------2-----------|-------3------2-----------|
---3----------------2-----|---3----------------2-----|

 Creo que estoy...  (Riff II)
                                                             
--0--------0--------|--3--------1--------|--0--------0--------|
--0--------2--------|--0--------1--------|--0--------2--------|
--1--------2--------|--0--------2--------|--1--------2--------|
--------------------|--------------------|--2--------2--------|
--------------------|--------------------|--2--------0--------|
--------------------|--------------------|--0-----------------|

Qué nadie se...
                                                                              
--3--------1--------|
--0--------1--------|
--0--------2--------|
--0--------3--------|
--2--------3--------|
--3--------1--------|


--------------------------|
--------------------------|
--------------------------|
-----0-----0-----0-----0--|
--------------------------|
--2-----2-----2-----2-----|

aaahhhhh...
                                                      
--------------------------|--------------------------|
--------------------------|--------------------------|
--------------------------|--------------------------|
-----3-----3-----3-----3--|-----0-----0-----0-----0--|
--0-----0-----0-----0-----|--------------------------|
--------------------------|--2-----2-----2-----2-----|


                                                      
--------------------------|
--------------------------|
--------------------------|
-----3-----3-----3-----3--|
--0-----0-----0-----0-----|
--------------------------|


0   0  000  00   00   000
0   0  0    0 0  0 0  0
0   0  00   00   0 0  00
 0 0   0    0 0  0 0  0
  0    000  0 0  00   000


|--------------------------------------|
|----------11----------------11--------|
|----------11----------------11--------|
|----------11----------------11--------|
|----------9-----------------9---------|
|--------------------------------------|

   Verde, aún no es...
                                                                        
--------------------------------|--------------------------------------|
--------7--------------7--------|----------11----------------11--------|
--------7--------------7--------|----------11----------------11--------|
--------7--------------7--------|----------11----------------11--------|
--------5--------------5--------|----------9-----------------9---------|
--------------------------------|--------------------------------------|


                                                                        
--------------------------------|--------------------------------------|
--------7--------------7--------|----------11----------------11--------|
--------7--------------7--------|----------11----------------11--------|
--------7--------------7--------|----------11----------------11--------|
--------5--------------5--------|----------9-----------------9---------|
--------------------------------|--------------------------------------|


                                                                        
--------------------------------------|--------------------------------|
----------11----------------11--------|--------7--------------7--------|
----------11----------------11--------|--------7--------------7--------|
----------11----------------11--------|--------7--------------7--------|
----------9-----------------9---------|--------5--------------5--------|
--------------------------------------|--------------------------------|

Los peces me...
                                                        
--------------------------------------|--------------------------------|
----------11----------------11--------|--------7--------------7--------|
----------11----------------11--------|--------7--------------7--------|
----------11----------------11--------|--------7--------------7--------|
----------9-----------------9---------|--------5--------------5--------|
--------------------------------------|--------------------------------|


                                                                  
--------3--------------3--------|--------------------------------|
--------5--------------5--------|--------2--------------2--------|
--------5--------------5--------|--------2--------------2--------|
--------5--------------5--------|--------4--------------4--------|
--------3--------------3--------|--------4--------------4--------|
--------------------------------|--------2--------------2--------|


                                                                  
--------3--------------3--------|--------------------------------|
--------5--------------5--------|--------2--------------2--------|
--------5--------------5--------|--------2--------------2--------|
--------5--------------5--------|--------4--------------4--------|
--------3--------------3--------|--------4--------------4--------|
--------------------------------|--------2--------------2--------|


A capella: Vida, tu que...


--------3--------------3--------|--------------------------------|
--------5--------------5--------|--------2--------------2--------|
--------5--------------5--------|--------2--------------2--------|
--------5--------------5--------|--------4--------------4--------|
--------3--------------3--------|--------4--------------4--------|
--------------------------------|--------2--------------2--------|

Ir allá...
                                                                  
--------3--------------3--------|--------------------------------|
--------5--------------5--------|--------2--------------2--------|
--------5--------------5--------|--------2--------------2--------|
--------5--------------5--------|--------4--------------4--------|
--------3--------------3--------|--------4--------------4--------|
--------------------------------|--------2--------------2--------|


--------3--------------3--------|--------------------------------|
--------5--------------5--------|--------2--------------2--------|
--------5--------------5--------|--------2--------------2--------|
--------5--------------5--------|--------4--------------4--------|
--------3--------------3--------|--------4--------------4--------|
--------------------------------|--------2--------------2--------|


--------3--------------3--------|--------------------------------|
--------5--------------5--------|--------2--------------2--------|
--------5--------------5--------|--------2--------------2--------|
--------5--------------5--------|--------4--------------4--------|
--------3--------------3--------|--------4--------------4--------|
--------------------------------|--------2--------------2--------|

me tragan...

--0--------0--------3--------1--------|
--0--------2--------0--------1--------|
--1--------2--------0--------2--------|
--2--------2--------0--------3--------|
--2--------0--------2--------3--------|
--0--------0--------3--------1--------|


-----3-----3-----3-----3--|-----3-----3-----3-----3--|
-----0-----0-----0-----0--|-----0-----0-----0-----0--|
-----0-----0-----0-----0--|-----0-----0-----0-----0--|
-----0-----0-----0-----0--|-----0-----0-----0-----0--|
-------3------2-----------|-------3------2-----------|
---3----------------2-----|---3----------------2-----|

  Este no es un...


--3--------|
--0--------|
--0--------|
--0--------|
--2--------|
--3--------|


Que la disfrutes! Siempre Tacvba!
Suggest correction
Creating personal tab
Creating personal tab
You can edit any tab online and save it as your Personal.

You can edit, replace or remove any tab part or add personal notes – all changes will be seen only by you.

Personal tabs can be accessed anytime from any device, even offline.
Learn more »
Give kudos to tab author, rate the tab!
1 2 3 4 5
comments
print report bad tab
guest
Wanna post a correction for this tab? Suggest correction