Oops, an error
Loading. Please wait.

Puntos Cardinales bass

82 views 1 this week
no commentswrite comment
1 2 3 4 5
3 more votes to show rating
add to favorites
×
Save as Personal and add changes to this tab that will be seen only by you. Learn more ›
×
You can save this tab as Personal to edit and correct it or add notes. All changes will be seen only by you. Learn more »
launch autoscroll
font size
0
reset
guitar tuner
edit
Autoscroll
slow
fast
+/-
esc
set tempo
stop
Esta cancion esta bien simple, pero si que esta chida!!!
El effecto que tiene el bajo crea el ambiante de la cancion.
No se que effecto use, pero si alguien lo sabe por favor de
mandarme un e-mail.

Esta cancion la tabie apartir de la version en vivo del DVD de
un viaje. Si quieren ponerle mas rellenos a la cancion utilizen
la escala de G.

Intro :

  (Empieza el teclado, despues la batuca y la guitarra y el bajo empieza al
  mismo tiempo.)
G|--------------------------|
D|--------------------------|  x 4
A|--------------------------|
E|----3---3-3--3--3---------|


Verso y coro:

   Amor y dulsura.....no debo obedienca a ninguno
G|--------------------------|--------------------------------|
D|-------5---45---24--------|--5--45---24--------------------| x11
A|----------------------25--|--------------25----------------|
E|-----3-------------------0|3-----------------5---31-------|
                                               (solo al ultimo)
(La cancion lleva un groove y les recomiendo que bloqueen las cuerdas)


Por calles y cuidades...siempre esta ubicado donde esta se
encuentra
(escuchen la cancion para que la  tocar la octava tambien)

G|--------------------------|
D|--------------------------| x 3
A|--------------------------|
E|----3---3-3--3--3---------|

G|--------------------------|
D|--------------------------|
A|--------------------------|
E|----3---3-3--3--32--------|

G|--------------------------|
D|-------5---45---24--------| x 7
A|----------------------25--|
E|-----3-------------------0|     alterando con 5 en ves de 0

No debo obedienca a ningunoooo...
G|-------------4---------|--------------------------------|
D|-------5--45----5-24---|--5--45---24--------------------|
A|---------------------5-|--------------25----------------|
E|-----3----------------5|3-----------------5-------------|


G|-----------------------|
D|-------5--45--24-------| x 5
A|-------------------25--|
E|-----3----------------0|


G|--------------------------|
D|--------------------------|  son esas notas pero
A|--------------------------|  no se juegan las vezes que esta
E|-----00-0222/33-5555------|  escrito ahi.


G|-----------------------|
D|-------5--45--24-------| x 4
A|-------------------25--|
E|-----3----------------0|


No debo obedienca a ninguno...
G|----------4--------|--------------------|--------------------|
D|----5--45----545---|--------------------|--------------------|
A|-----------------5-|--------------------|------------2255----|
E|--3---------------5|--00-0222/33-5555-3-|-00-022-23355----55-|


G|-----------------------|------------------------|
D|-------5--45--24-------|------------------------|
A|-------------------25--|-------------2255-------|
E|-----3----------------5|-00-022-23355----55-----|

G|-----------------------|
D|-------5--45--24-------| x 4
A|-------------------25--|
E|-----3----------------5|


G|---------------------|----------------------|Hasta el final
D|-----------------5---|----------------------|escuchen la cancion
A|---------------------|----------------------|para hallar el tiempo.
E|--33-33--3333-33-----|---33-3333333--33-----|

Pues eso fue todo todo todito todo codo.
Suggest correction
Creating personal tab
Creating personal tab
You can edit any tab online and save it as your Personal.

You can edit, replace or remove any tab part or add personal notes – all changes will be seen only by you.

Personal tabs can be accessed anytime from any device, even offline.
Learn more »
Give kudos to tab author, rate the tab!
1 2 3 4 5
comments
print report bad tab
guest
Wanna post a correction for this tab? Suggest correction