Oops, an error
Loading. Please wait.

Quiero Ver Bass Tab

version 1
version 1

Whole song

Interactive

10,144 views 6 this week
1 commentread comment
1 2 3 4 5
excellent!
x 3
add to favorites
launch autoscroll
font size
0
reset
guitar tuner
Autoscroll
slow
fast
+/-
esc
set tempo
stop
Help us to improve Ultimate-Guitar.com Take our survey!
×
Difficulty
intermediate
G|-------------|--------------------|-------------|-------------------|
D|-------------|--------------------|-------------|-------------------|
A|222-2222---x6|-----------111-1111-|-222-2222--x3|-11111111-66442211-|
E|---------2---|-111-11111---------1|---------2---|-------------------|

G|----------------------------------------------------------|-------------|
D|----------------------------------------------------------|-------------|
A|----------222-2222-----------66442211-----------444-44-42-|--222-2222-x2|
E|444-44446----------666-66666----------444-44444----4--4---|----------2--|

G|--------------------|-------------|---------------------------|
D|--------------------|-------------|---------------------------|
A|----------111-11-1--|--222-2222-X2|--111-11111-6688-10-10-66--|
E|111-11111----1--1-1-|----------2--|---------------------------|

G|--------------------------------------------------------------------|
D|-------------------------999-9999-11-888-88888-111-11111------------|
A|11-11-11--11-11-11-11-13--------------------------------------------|
E|---------------------------------------------------------222-22222--|

G|---------------------------------------------------------------------|
D|---------------------------------------------------------------------|
A|222-22-2--------------------------------66442211---------------------|
E|---2--2-2-000-00007-000-00007-666-66666----------444-44444-111-11111-|

G|----------------------------------------------------------------------|
D|--------------------------------------------333--------11-------------|
A|111-11111-666-66-64-222-2222--222-22-2----33---333---33--11-222-2222--|
E|-------------6--6------2----2----2--2-2-11---------11----------2----2-|

G|----------------------------------------------------------------------|
D|----------------------------------------------------------------------|
A|222-22-2--111-11111-6688-10-10-66-111-11111-66442211------------------|
E|---2--2-2-----------------------------------------444-44442-111-11111-|

G|----------------1///4-8///12-|
D|111-11111-66666--------------|  end
A|-----------------------------|
E|-----------------------------|
Suggest correction
Give kudos to tab author, rate the tab!
1 2 3 4 5
comments
print report bad tab
1 comment total.
0 reply
jorge.foi 10 wrote on September 25 2015, 02:00 am

Excelente tablatura, pocos aprecian el poder del bajo en una canción, tu pudiste transmitir nota por nota la canción en esta tablatura, muchas gracias.

guest
You may want to rate the tab now too:
select rating
Wanna post a correction for this tab? Suggest correction