Oops, an error
Loading. Please wait.

Reves tab

43 views 1 this week
no commentswrite comment
1 2 3 4 5
3 more votes to show rating
add to favorites
×
Save as Personal and add changes to this tab that will be seen only by you. Learn more ›
×
You can save this tab as Personal to edit and correct it or add notes. All changes will be seen only by you. Learn more »
launch autoscroll
font size
0
reset
how to read this tab
guitar tuner
edit
Autoscroll
slow
fast
+/-
esc
set tempo
stop
ESTA CANCION LA SAQUE A PURO OIDO, ASI QUE PUEDE ESTAR
MAL.

La rola lleva solo 3 acordes, segun yo, F#m,G y A al comienzo de la misma

la sisguiente parte es una de las tantas que se hace en el teclado,
pero de igual manera la pueden sacar con la guitarra

G------------------------------------------------
B-11-11-9-11-9-11-9-11-14------------------------
e------------------------------------------------

G----------------------11-------------------
B-11-11-9-11-9-9-11-9---------------------------
e-----------------------------------------------

G------------------------------------------------
B-11-11-9-11-9-11-9-11-14------------------------
e------------------------------------------------

G---------------------------------------------11-
B-11-11-11-11-11-11-11-11-11-11-11-11-9-11-9-----
e------------------------------------------------

BUENO PUES ESPERO QUE LA PUEDAN SACAR.Y SI TIENEN
ALGUNA CORRECCION PUES MANDENMELA.

            
            
Suggest correction
Creating personal tab
Creating personal tab
You can edit any tab online and save it as your Personal.

You can edit, replace or remove any tab part or add personal notes – all changes will be seen only by you.

Personal tabs can be accessed anytime from any device, even offline.
Learn more »
Give kudos to tab author, rate the tab!
1 2 3 4 5
comments
print report bad tab
guest
Wanna post a correction for this tab? Suggest correction