Oops, an error
Loading. Please wait.

2024 Tab

2,380 views 9 this week
1 commentread comment
1 2 3 4 5
worth learning
x 3
add to favorites
launch autoscroll
font size
0
reset
how to read this tab
guitar tuner
Autoscroll
slow
fast
+/-
esc
set tempo
stop
Help us to improve Ultimate-Guitar.com Take our survey!
×
Tabbed By: Saviano Perry
smashingpumpkins11@gmail.com

2024
Cage the Elephant
Thank You Happy Birthday

Intro:
Guitar 1: 
e|----------------------------------| 
B|----------------------------------|
G|----------------------------------|
D|-2-4444444----2-444----44444444---|
A|-2-4444444-x2-2-444-x2-44444444---|
E|-2-4444444----2-444----44444444---|

e|------------------------|
B|---13-------------------|
G|-14--14-----------------|
D|------------------------|
A|--------10-12-10--------|
E|-----------------13-----|

Guitar 2:
e|-------------------------------------| 
B|-------------------------------------|
G|--------------------------66666666---|
D|-4-66666666----4-666----4-66666666---|x1
A|-4-66666666-x2-4-666-x2-4-44444444---|
E|-2-44444444----2-444----2------------|


Verse:
Guitar 1:           
e|--------------------------------|
B|---13~----13---12-14-12------13-|
G|-14-----14--14----------15-14---|
D|--------------------------------|
A|--------------------------------|
E|--------------------------------|

Guitar 2:
e|--------------------------------| 
B|--------------------------------|
G|--------------------------------|
D|-4444444-6666666----66666666666-|x2
A|-4444444-6666666-x3-66666666666-|
E|-2222222-4444444----44444444444-|

Chorus:
Guitar 1:
e|-----------------|
B|---13~-----15----|
G|-14---14-16--16--|
D|-----------------|
A|-----------------|
E|-----------------|

e|------------------------|
B|---13-------------------|
G|-14--14-----------------|
D|------------------------|
A|--------10-12-10--------|
E|-----------------13-----|

Guitar 2:
e|-------------------------------------------------------------| 
B|-------------------------------------------------------------|
G|-------------------------------------------------------------|
D|-4-44444-6-66666--4444444----6666666-88888888----4444444-----|
A|-4-44444-6-66666--4444444-x2-6666666-88888888-x5-4444444-----|
E|-2-22222-4-44444--2222222----4444444-66666666----2222222-----|
Suggest correction
What's this?
You can suggest a correction to this tab. Community and Mods will review your correction and vote to approve or reject it.
comments
We did not receive enough feedback on this tab! Please rate:
print report bad tab
1 2 3 4 5
1 comment total.
+1 reply
camgaertner 71 wrote on January 22 2014, 10:13 pm

no...close on the intro on the bottom e, but other than that.. no...

guest
You may want to rate the tab now too:
select rating
Please do not post tabs as comments. Select "correction" instead!