Oops, an error
Loading. Please wait.

Aint No Rest For The Wicked Tab

version 5
version 5

Interactive

46,585 views 60 this week
5 commentsread comments
1 2 3 4 5
x 8
add to favorites
launch autoscroll
font size
0
reset
how to read this tab
guitar tuner
Autoscroll
slow
fast
+/-
esc
set tempo
stop
Help us to improve Ultimate-Guitar.com Take our survey!
×
Author
Difficulty
Tuning
intermediate
D G D G B D
Tuning: Open G, played with a slide.

[Intro]
d|--5(=)8----------------|
B|---------6--8----------|
G|-----------------------|
D|---------------8v------|

[Main Riff]
d|------------------------------------------------------------------------|
B|--0303=50-----------0303=50--3=5-5---0303=50-----------030-xxxx-030-030-|
G|--0303=50-(03/55)---0303=50--3=5-5---0303=50-(03/55)---030-xxxx-030-030-|
D|--0303=50-(03/55)---0303=50--3=5-5---0303=50-(03/55)---030-xxxx-030-030-|
G|--0303=50-(03/55)---0303=50--3=5-5---0303=50-(03/55)---030-xxxx-030-030-|
D|------------------------------------------------------------------------|

[Verse]
d|-------------------------------------------------------|
B|--00-xxxxxx-33-xxxxxx-55-xxxxxx------------------------|
G|o-00-xxxxxx-33-xxxxxx-55-xxxxxx-(33--xx)--------------o|
D|o-00-xxxxxx-33-xxxxxx-55-xxxxxx-(33--xx)-(33--xx)-----o|
G|--00-xxxxxx-33-xxxxxx-55-xxxxxx-(33--xx)-(33--xx)------|
D|-----------------------------------------(33--xx)------|

[Verse/pre-chorus]
d|-------------------------------------------------------|
B|-00-xxxxxx-33-xxxxxx-55-xxxxxx-------------------------|
G|-00-xxxxxx-33-xxxxxx-55-xxxxxx-------------------------|
D|-00-xxxxxx-33-xxxxxx-55-xxxxxx--(nothing is played)----|
G|-00-xxxxxx-33-xxxxxx-55-xxxxxx-(just play muted notes)-|
D|-------------------------------------------------------|

d|--------------------------------------------------|
B|-00-xxxxxx-33-xxxxxx-55-xxxxxx------030--030------|
G|-00-xxxxxx-33-xxxxxx-55-xxxxxx------030--030------|
D|-00-xxxxxx-33-xxxxxx-55-xxxxxx------030--030------|
G|-00-xxxxxx-33-xxxxxx-55-xxxxxx------030--030------|
D|--------------------------------------------------|

[Chorus] (x7)
d|--x/12~-------------|--------------15-----17--------|
B|--3/12~---3/5555----|--3/12---12/15----18----\12----|
G|o-3/12~---3/5555---o|--3/12---------------------12v-|
D|o-3/12~---3/5555---o|--3/12-------------------------|
G|--3/12~---3/5555----|--3/12-------------------------|
D|--------------------|-------------------------------|

[Verse]
d|-------------------------------------------------------|
B|--00-xxxxxx-33-xxxxxx-55-xxxxxx------------------------|
G|o-00-xxxxxx-33-xxxxxx-55-xxxxxx-(33--xx)--------------o|
D|o-00-xxxxxx-33-xxxxxx-55-xxxxxx-(33--xx)-(33--xx)-----o|
G|--00-xxxxxx-33-xxxxxx-55-xxxxxx-(33--xx)-(33--xx)------|
D|-----------------------------------------(33--xx)------|

[Verse/pre-chorus]
d|-------------------------------------------------------|
B|-00-xxxxxx-33-xxxxxx-55-xxxxxx-------------------------|
G|-00-xxxxxx-33-xxxxxx-55-xxxxxx-------------------------|
D|-00-xxxxxx-33-xxxxxx-55-xxxxxx--(nothing is played)----|
G|-00-xxxxxx-33-xxxxxx-55-xxxxxx-(just play muted notes)-|
D|-------------------------------------------------------|

d|--------------------------------------------------|
B|-00-xxxxxx-33-xxxxxx-55-xxxxxx------030--030------|
G|-00-xxxxxx-33-xxxxxx-55-xxxxxx------030--030------|
D|-00-xxxxxx-33-xxxxxx-55-xxxxxx------030--030------|
G|-00-xxxxxx-33-xxxxxx-55-xxxxxx------030--030------|
D|--------------------------------------------------|

[Chorus] (x7)
d|--x/12~-------------|--------------15-----17--------|
B|--3/12~---3/5555----|--3/12---12/15----18----\12----|
G|o-3/12~---3/5555---o|--3/12---------------------12v-|
D|o-3/12~---3/5555---o|--3/12-------------------------|
G|--3/12~---3/5555----|--3/12-------------------------|
D|--------------------|-------------------------------|

(Then play this after chorus segment instead of the lick to enter the solo)
d|------------|
B|--3/12\-----|
G|--3/12\-----|
D|--3/12\-----|
G|--3/12\-----|
D|------------|

(Gtr 1)
(Solo)       
d|--5=8----------------|-5=8-----8-------|
B|--------6--8---------|-----6-8---6-8---|
G|o-------------------o|-----------------|
D|o-------------8v----o|-----------------| (x3)
G|---------------------|-----------------|
D|---------------------|-----------------|
                     
(Gtr 2)
(Solo Rhythm)
d|---------------------------------------|
B|---------------------------------------|
G|o--00-xxxxxx-0-3333/5555--------------o|
D|o--00-xxxxxx-0-3333/5555--------------o|
G|---00-xxxxxx-0-3333/5555---------------|
D|---------------------------------------|

[Verse]
d|-------------------------------------------------------|
B|--00-xxxxxx-33-xxxxxx-55-xxxxxx------------------------|
G|o-00-xxxxxx-33-xxxxxx-55-xxxxxx-(33--xx)--------------o|
D|o-00-xxxxxx-33-xxxxxx-55-xxxxxx-(33--xx)-(33--xx)-----o|
G|--00-xxxxxx-33-xxxxxx-55-xxxxxx-(33--xx)-(33--xx)------|
D|-----------------------------------------(33--xx)------|

[Verse/pre-chorus]
d|-------------------------------------------------------|
B|-00-xxxxxx-33-xxxxxx-55-xxxxxx-------------------------|
G|-00-xxxxxx-33-xxxxxx-55-xxxxxx-------------------------|
D|-00-xxxxxx-33-xxxxxx-55-xxxxxx--(nothing is played)----|
G|-00-xxxxxx-33-xxxxxx-55-xxxxxx-(just play muted notes)-|
D|-------------------------------------------------------|

d|--------------------------------------------------|
B|-00-xxxxxx-33-xxxxxx-55-xxxxxx------030--030------|
G|-00-xxxxxx-33-xxxxxx-55-xxxxxx------030--030------|
D|-00-xxxxxx-33-xxxxxx-55-xxxxxx------030--030------|
G|-00-xxxxxx-33-xxxxxx-55-xxxxxx------030--030------|
D|--------------------------------------------------|

[Chorus] (x7)
d|--x/12~-------------|--------------15-----17--------|
B|--3/12~---3/5555----|--3/12---12/15----18----\12----|
G|o-3/12~---3/5555---o|--3/12---------------------12v-|
D|o-3/12~---3/5555---o|--3/12-------------------------|
G|--3/12~---3/5555----|--3/12-------------------------|
D|--------------------|-------------------------------|

[Ending]
d|----------------------0---|
B|-----------------------5--|
G|-3b-2p0-------------------|
D|--------2p0-2p0---0-------|
G|--------------------------|
D|--------------------------|


************************************

| x  Dead note
| /  Slide up
| ~  Vibrato
| \  Slide down
| p  Pull-off
| b  Bend 

************************************
Suggest correction
comments
print report bad tab
5 comments total. Showing first comments.
+1 reply
JustOneBullet22 10 Jul 12, 2010 03:59 PM

Great tab man 5/5

0 reply
rthomas16 10 Jan 13, 2011 03:20 PM

You still don't have it 100%, the intro isn't quite right, which seems to be the case with all the tabs of this song.

0 reply
rthomas16 10 Jan 13, 2011 03:25 PM

Try:
d|--------------------------|
B|--------------------------|
G|-----------/12------------|
D|-----------/12------------|
G|-12\10/12--/12--12--------|
D|-12\10/12-------12--------|

with a slide, of course

guest
You may want to rate the tab now too:
select rating
Wanna post a correction for this tab? Suggest correction