Oops, an error
Loading. Please wait.

Beat Your Ear Drums Tab

348 views 1 this week
no commentswrite comment
1 2 3 4 5
3 more votes to show rating
add to favorites
launch autoscroll
font size
0
reset
how to read this tab
guitar tuner
Autoscroll
slow
fast
+/-
esc
set tempo
stop
Help us to improve Ultimate-Guitar.com Take our survey!
×
Author
Difficulty
Beat Your Ear Drums
 
Perfect Confusion
Perfect Confusion
Tabbed By: Saviano Perry
smashingpumpkins11@gmail.com

Intro:

e|----------------------------------|
B|----------------------------------|
G|--7-7--9-9------------------------|
D|--7-7--9-9------------------------|
A|--5-5--7-7------------------------|
E|----------------------------------|

Chorus:

e|------------11-10-9-8-7-6-(First time then)----------------------------------------|
B|------------------------------------------------------------------------11b--------|
G|------7-9-9--------------------------------11b-11-10-9-8----------------11b-10-----|
D|--9-9-7-9-9x3------------------------------11b---------------7h8-9-10-11-----------|
A|--9-9-5-7-7-----------------------------------(Then>)------------------------------|
E|--7-7------------------------------------------------------------------------------|

Verse:


e|-----------------------------------|
B|-----------------------------------|
G|----12/---77-99----------99-77-----|
D|-99-------77-99---99-12/-99-77-----|
A|-99-------55-77---99-----77-55-----|
E|-77---------------77---------------|

Solo:

e|-----------------------------------------------------------------------------------|
B|----10---9----------------------10---------9-----8h9p7-9-8-7-----------------------|
G|-77----66----8h9p7-9-8-7-6-x2-77----987-66---987-----------------------------------|
D|-----------------------------------------------------------------------------------|
A|-----------------------------------------------------------------------------------|
E|-----------------------------------------------------------------------------------|


e|-----------------------------------------------------------------------------------|
B|--------11-10----------------------------------------------------------------------|
G|-----10-------11-10----------------------------------------------------------------|
D|-9-11--------------9-11------------------------------------------------------------|
A|-----------------------------------------------------------------------------------|
E|-----------------------------------------------------------------------------------|
Suggest correction
Give kudos to tab author, rate the tab!
1 2 3 4 5
comments
print report bad tab
guest
You may want to rate the tab now too:
select rating
Wanna post a correction for this tab? Suggest correction