Oops, an error
Loading. Please wait.

Flow Tab

version 3
version 3

Whole song

Interactive

4,223 views 1 this week
1 commentread comment
1 2 3 4 5
x 4
add to favorites
launch autoscroll
font size
0
reset
how to read this tab
guitar tuner
Autoscroll
slow
fast
+/-
esc
set tempo
stop
Help us to improve Ultimate-Guitar.com Take our survey!
×
Author
Difficulty
intermediate
Tabbed by: (Take a Guess)
Email: victorclark010@yahoo.com

Tuning: eBGDAE

Hey, I made a few changes to the 5-star tab, which was pretty good already,
that make it sound a bit more correct. So props to him for getting me started anyhow.

Disclaimers:
1. Theres a little bit of sliding, so when doing so make sure you take it
nice and chill - don't rush it or it will sound all wrong. 

2. I'm playing this on an un-amped electric, so when I put # after a slide 
not its because it sounds right to hit it again... it may not sound right
on a amped guitar. If not just slide.

3. There are quite a few notes that you... umm... vibrato(wc?). a.k.a when
you get to a note has (~) just bend it up and down fast but lightly -
you'll get a feel for it.

4. The (*) notes that I add hear and there are played lightly... and I'm
not sure if they're there or I'm just imagining hearing them. However, if
played right they sound really good and give the song a fuller sound. 





Intro Riff:
e|-----------------------------------------------|
B|-----------------------------------------------|
G|--11-11--9-11\14~--------11-11--9-11-9---------|
D|---------------------------------------11~-----|
A|-----------------------------------------------|
E|-----------------------------------------------| x4





Verse Riff:
e|-----------------------------------------|
B|----------------------10*----------------|
G|-11~~~-----9~~~-----------11*-------11~~-|
D|-----------------------------------------|
A|-----------------------------------------|
E|-----------------------------------------|
  *Play the note very, very lightly. 




Chorus-1 Riff:
e|------------------------------|--------------------|
B|------------------------------|--------------------|
G|-9~~--7~~---------------------|--------------------|
D|------------9\11-11---9\11-11-|--9\11-11---9\11-11-|
A|------------------------------|--------------------|
E|------------------------------|--------------------|
                                x3      add this on x4




PreChorus Riff:
e|----9----------7-----------------------------------|
B|---------------------------------------------------|
G|-11---11*----9---9*-----9\11-14p11*---9\11-14p11*--|
D|---------------------------------------------------|
A|---------------------------------------------------|
E|---------------------------------------------------| x2
  *Play the note/pull off on the ‘G’ string (hah) very, very lightly.





Verse Riff:
e|-------------------------------|
B|----------------------10*------|
G|-11~~~-----9~~~-----------11*--|
D|-------------------------------|
A|-------------------------------|
E|-------------------------------|
  *Play the note very, very lightly.


Chorus-2 Riff:
e|------------------------------|--------------------|
B|------------------------------|--------------------|
G|-9~~--7~~---------------------|--------------------|
D|------------9\11-11---9\11-11-|--9\11-11---9\11-11-|
A|------------------------------|--------------------|
E|------------------------------|--------------------|
                                x3      add this on x4




PreChorus-2 Riff:
e|----9----------7-----------------------------------|
B|---------------------------------------------------|
G|-11---11*----9---9*-----9\11-14p11*---9\11-14p11*--|
D|---------------------------------------------------|
A|---------------------------------------------------|
E|---------------------------------------------------| x2
  *Play the note/pull off very, very lightly.





Guitar Solo ‘Riff’:
e|--------------------------------------------------------------------------------|
B|-12----14-----12-12*-12*----14/17#----------------------------------------------|
G|---------------------------------------11-----14-----11-11*-11*-------14/16-----|
D|-----------------------------------------------------------------------------11-|
A|--------------------------------------------------------------------------------|
E|--------------------------------------------------------------------------------| x2
*Play the note very, very lightly.
#Pluck the string when you finish sliding to the fret.





Chorus-2 Riff:
e|------------------------------|--------------------|
B|------------------------------|--------------------|
G|-9~~--7~~---------------------|--------------------|
D|------------9\11-11---9\11-11-|--9\11-11---9\11-11-|
A|------------------------------|--------------------|
E|------------------------------|--------------------|
                                x3      add this on x4




Outro Riff:
e|------------------------------------------------------------|
B|-------------10/12#-----------------------------------------|
G|-9-11~---------------9~-------9/11#/6#~-------6/9#/4#~------|
D|------------------------------------------------------------|
A|------------------------------------------------------------|
E|------------------------------------------------------------|

e|------------------------------------------------------------|
B|-------------10/12#-----------------------------------------|
G|-6/11~---------------9~-------9/11#/6#~-------6/9#/4#~------|
D|------------------------------------------------------------|
A|------------------------------------------------------------|
E|------------------------------------------------------------|

e|------------------------------------------------------------|
B|-------------10/12#-----------------------------------------|
G|-6/11~---------------9~-------------------------------------|
D|-----------------------------11~~----9~~----7~~~-------7~~~-|
A|------------------------------------------------------------|
E|------------------------------------------------------------|
#Pluck the string when you finish sliding to the fret.
Suggest correction
comments
print report bad tab
1 comment total.
0 reply
sin.corazon-jp 10 Mar 02, 2016 02:41 PM

Outro Riff:
e|------------------------------------------------------------|
B|---5/7----------10/12#------5-------5/7/2---------2/5/0-----|
G|------------------------------------------------------------|
D|------------------------------------------------------------|
A|------------------------------------------------------------|
E|------------------------------------------------------------|

e|------------------------------------------------------------|
B|--2/7-----------10/12#----5------5/7/2------------2/5/0-----|
G|------------------------------------------------------------|
D|------------------------------------------------------------|
A|------------------------------------------------------------|
E|------------------------------------------------------------|

e|------------------------------------------------------------|
B|--2/7-----------10/12#----5---------------------------------|
G|------------------------------------------------------------|
D|-------------------------------------9~~----7~~~-------7~~~-|
A|------------------------------------------------------------|
E|------------------------------------------------------------|

guest
You may want to rate the tab now too:
select rating
Wanna post a correction for this tab? Suggest correction