Oops, an error
Loading. Please wait.

Free Love Tab

2,958 views 6 this week
2 commentsread comments
1 2 3 4 5
x 3
add to favorites
launch autoscroll
font size
0
reset
how to read this tab
guitar tuner
×
Best way to learn
"Free Love"
Autoscroll
slow
fast
+/-
esc
set tempo
stop
Author
Difficulty
  follow
intermediate
Tabbed By: Saviano Perry
smashingpumpkins11@gmail.com
Free Love
 
Cage the Elephant
Cage the Elephant

Intro:
Guitar 1:
|-15\---1414-15---1414-15---1414-15-xx-15-1515151515---|
|-14\---1313-14---1313-14---1313-14-xx-14-1414141414---|
|-----------------------------------xx-----------------|
|-----------------------------------xx-----------------|
|------------------------------------------------------|
|------------------------------------------------------|

|------------------------------------|
|------------------------------------|
|-12-(x16)--14-(x8)--15(x3)-----18b--|
|--x---------x--------x--------------|
|-10--------12-------13--------------|
|------------------------------------|

Guitar 2:
|-----------------------------------------------------|
|-----------------------------------xx----------------|
|--12\--1111-12--1111-12-12-1111-12-xx-12-1212121212--|
|--12\--1111-12--1111-12-12-1111-12-xx-12-1212121212--|
|-----------------------------------xx----------------|
|-----------------------------------------------------|

  G             G
|-333-----------333--------------|
|-333-----------333--------------|
|-444-----------444--------------|
|-555-----------555--------------|
|-555-----3-5-0-555-----3-5-0----|
|-333-3-5-------333-3-5----------|



Verse: 
Guitar 1:
|-15\---1414-15---1414-15---1414-15-xx-15-1515151515---|
|-14\---1313-14---1313-14---1313-14-xx-14-1414141414---|
|-----------------------------------xx-----------------|
|-----------------------------------xx-----------------|
|------------------------------------------------------|
|------------------------------------------------------|

Guitar 2:
|-----------------------------------------------------|
|-----------------------------------xx----------------|
|--12\--1111-12--1111-12-12-1111-12-xx-12-1212121212--|
|--12\--1111-12--1111-12-12-1111-12-xx-12-1212121212--|
|-----------------------------------xx----------------|
|-----------------------------------------------------|


Chorus:
Guitar 1:
|------------------------------------|
|------------------------------------|
|-12-(x16)--14-(x8)--15(x3)-----18b--|
|--x---------x--------x--------------|
|-10--------12-------13--------------|
|------------------------------------|


Guitar 2:
  G             G
|-333-----------333--------------|
|-333-----------333--------------|
|-444-----------444--------------|
|-555-----------555--------------|
|-555-----3-5-0-555-----3-5-0----|
|-333-3-5-------333-3-5----------|


Breakdown:

Guitar 1:

|---------------------------------------------------|
|---------------------------------------------------|
|---------------------------------------------------|
|-----------------------------5-5-5-5-7-7-7-7-------|
|-7777-7-(x4)-7-7-7-7-7-7-7-7------------------(x3)-|
|--------------5-5-5-5-5-5-5-5-5-5-5-5-5-5-5-5------|
  A           
|-----------------------|
|-222---------888888----|
|-222-2b-(x3)-777777----|
|-222-------------------| x2
|-000-------------------|
|-----------------------|

Guitar 2 scratches strings throughout breakdown occasionally playing a G chord and at the end
plays the chorus part.


Solo:
Guitar 1:
|--------------------------------------------------------|
|-8-7-8-7-8-7-8-7----------8-7-8-7-8--10^10^10^10^10^----|
|-7-6-7-6-7-6-7-6----------7-6-7-6-7--10^10^10^10^10^----|
|-----------------7-6-(x3)-------------------------------| 
|--------------------------------------------------------|
|--------------------------------------------------------|

|-----------------------------------------|
|-----------------------------------------|
|-----------------------------------------|
|-13^-9-13^-9-7^8-7^8-7^8-7^8-------------|
|-------------------------------9\7-5-7---|
|-----------------------------------------|

Guitar 2 just scratches strings playing a G chord sporadically 

















Suggest correction
Give kudos to tab author, rate the tab!
1 2 3 4 5
comments
print report bad tab
2 comments total.
0 reply
chaddie96 10 Mar 26, 2015 02:36 PM

Lack of formatting. Lack of accuracy. Clearly wrong. everything about this tab is wrong, the intro is clearly not power chords, the octaves riff is not a chromatic ascension and i'm pretty sure two guitar parts have been badly melded into one

guest
You may want to rate the tab now too:
select rating
Wanna post a correction for this tab? Suggest correction