Oops, an error
Loading. Please wait.

Japanese Buffalo Tab

version 2
version 2

Whole song

1,823 views 21 this week
no commentswrite comment
1 2 3 4 5
excellent!
x 5
add to favorites
launch autoscroll
font size
0
reset
how to read this tab
guitar tuner
Tab Pro tools
  • play this tab
  • loop segment
  • change instrument
  • show fretboard
  • metronome
×
Best way to learn
"Japanese Buffalo"
Autoscroll
slow
fast
+/-
esc
set tempo
stop
Difficulty
novice
Intro:
|-----------------------------------------------------------------------------|
|-------5---------------------------------------------------------------------|
|-----5---5---------5-----------2-----------4---------------------------------|
|---5-------5-----7---7-------3---3-------5---5-------------------------------|
|-3-------------7-------7---3-------3---5-------5~~---------------------------|
|-------------5-----------1-----------3---------------------------------------|
(repeat)

Verse 1:
|-----------------------------------------------------------------------------|
|-----------------------------------------------------------------------------|
|-5   ------------------------------------------------------------------------|
|-5 x8----7   ----------------------------------------3    -------------------|
|-3   ----7 x8----------------------------------------3 x16-------------------|
|---------5   ----------------------------------------1    -------------------|
(Do this three times then do this>>>>>>>>>>>>>>>^^^^^^^^^^^^^^^^)
(Repeat)

Chorus:
|-----------------------------------------------------------------------------|
|-----------------------------------------------------------------------------|
|--5   ---4~~-----------------------------------------------------------------|
|--5 x6-----------------------------------------3-3-3-33/5-5-5-5--------------|
|--3   -----------------------------------------3-3-3-33/5-5-5-5--------------|
|-----------------------------------------------1-1-1-11/3-3-3-3--------------|
(Do this three times then do this>>>>>>>>>>>>>>>^^^^^^^^^^^^^^^^)
(Repeat)

(Play Verse and Chorus again)


Verse 2:
|-----------------------------------------------------------------------------|
|-----------------------------------------------------------------------------|
|-5   ------------------------------------------------------------------------|
|-5 x7--7   --3   --5   ------------------------------------------------------|
|-3   --7 x7--3 x7--5 x7------------------------------------------------------|
|-------5   --1   --3   ------------------------------------------------------|
(This is first done four times)

Bridge:
|-----------------------------------------------------------------------------|
|-----------------------------------------------------------------------------|
|-5   ------------------------------------------------------------------------|
|-5 x7--7~~~--3   --5~~~----------------------------3   ---5   ---------------|
|-3   --7~~~--3 x7--5~~~----------------------------3 x6---5 x6---------------|
|-------5~~~--1   --3~~~----------------------------1   ---3   ---------------|
(This is done three times then play this twice>>>>>>^^^^^^^^^^^^^^)

(Then play Verse 2 6 times)

End on:
|----------|
|----------|
|----------|
|-2~~~~~---|
|-2~~~~~---|
|-0~~~~~---|

--------------------------------------------------------------------------------------
--------------------------------------------------------------------------------------
email: satanic_jesus@hotmail.co.uk

This is my first tab so if it is wrong please give me any suggestions you have
comments
print report bad tab
I want to post or [tab]
guest
You may want to rate the tab now too:
select rating
Please do not post tabs as comments. Select "correction" instead!