Oops, an error
Loading. Please wait.

Lotus Tab

8,132 views 15 this week
no commentswrite comment
1 2 3 4 5
excellent!
x 7
add to favorites
launch autoscroll
font size
0
reset
how to read this tab
guitar tuner
Autoscroll
slow
fast
+/-
esc
set tempo
stop
Help us to improve Ultimate-Guitar.com Take our survey!
×
Contributor
-------------------------------------------------------------------------------
                             Lotus - Cage The Elephant
-------------------------------------------------------------------------------
Tabbed by:WomboCombo
Email:KnoxX777X@hotmail.com

Tuning:EADGBe (Standard)

"First note in intro"
e|--------------------------------------------------------------------------|
B|--------------------------------------------------------------------------|
G|0-(Let ring)--------------------------------------------------------------|
D|--------------------------------------------------------------------------|
A|--------------------------------------------------------------------------|
E|--------------------------------------------------------------------------|

"Verse" Not quite sure on the strumming pattern of the notes, but play around with it 
and you'll get it down.
e|--------------------------------------------------------------------------|
B|-------x9-----------------------------------------------------------------|
G|-------x9-----------------------------------------------------------------|
D|-------x9-----------------------------------------------------------------|
A|--------------------------------------------------------------------------|
E|9-9-9---------------------------------------------------------------------|

"Chorus"
e|------0-------------------------------------------------------------------|
B|7-----0-------------------------------------------------------------------|
G|7-----2-------------------------------------------------------------------|
D|7-----2-------------------------------------------------------------------|
A|--------------------------------------------------------------------------|
E|--------------------------------------------------------------------------| x4

e|---7-7-7-7--7-7-7-7-------------------------------------------------------|
B|5h7-7-7-7--5-5-5-5--------------------------------------------------------|
G|--------------------------------------------------------------------------|
D|--------------------------------------------------------------------------|
A|--------------------------------------------------------------------------|
E|--------------------------------------------------------------------------| x4

"Solo Pt.1-Guitar 1"
e|------------9-9-----------------------------------------------------------|
B|9----------------12b------------------------------------------------------|
G|9-----11b--------------11b(13br)p9-11-11b(bend up slowly while strumming)-|
D|9-------------------------------------------------------------------------|
A|--------------------------------------------------------------------------|
E|--------------------------------------------------------------------------|

e|-----------------------------------------9---------------9----------------|
B|9-------------------------------------------------------------------------|
G|9-------11b(13br)p9-11-9~---11b(13)-(13)----11b(13)-(13)---11b--11p9h11~--|
D|--11~---------------------------------------------------------------------|
A|--------------------------------------------------------------------------|
E|--------------------------------------------------------------------------|

e|--------------------------------------------------------------------------|
B|--------------------------------------------------------------------------|
G|18-18-18-18--16-16-16-16--14-14-14-14--13-13-13-13------------------------|
D|xx-xx-xx-xx--xx-xx-xx-xx--xx-xx-xx-xx--xx-xx-xx-xx------------------------|
A|16-16-16-16--14-14-14-14--12-12-12-12--11-11-11-11------------------------|
E|--------------------------------------------------------------------------| x2

"Solo Pt.1-Guitar 2"
e|--------------------------------------------------------------------------|
B|--------------------------------------------------------------------------|
G|6-xxxx-6-xxxx-6-xxxx-6-xxxx-6---------------------------------------------|
D|x-xxxx-x-xxxx-x-xxxx-x-xxxx-x-4-5-6(repeat throughout Solo Pt. 1-Guitar 1)|
A|4-xxxx-4-xxxx-4-xxxx-4-xxxx-4---------------------------------------------|
E|--------------------------------------------------------------------------|

"Solo Pt.2-Guitar 1"
e|--------------------------------------------------------------------------|
B|9-7-6-7-6----9-7-6-7-6----9-7-6-7-6---------------------------------------|
G|----------6~-----------6~-----------6-5-6-5-6-5-6-5-6~--------------------|
D|--------------------------------------------------------------------------|
A|--------------------------------------------------------------------------|
E|--------------------------------------------------------------------------|

e|--------------------------------------------------------------------------|
B|9-7-6-7-6----9-7-6-7-6----9-7-6-7-6---6-----------------------------------|
G|----------6~-----------6~-----------6---6-5-6-5-6-5-6~--------------------|
D|--------------------------------------------------------------------------|
A|--------------------------------------------------------------------------|
E|--------------------------------------------------------------------------|

e|5/7-7-7-7-7-7-7-7--5/7-7-7-7-7-7-7-7--5/7-7-7-7--5/7-7-7-7----------------|
B|7/9-9-9-9-9-9-9-9--7/9-9-9-9-9-9-9-9--7/9-9-9-9--7/9-9-9-9----------------|
G|--------------------------------------------------------------------------|
D|--------------------------------------------------------------------------|
A|--------------------------------------------------------------------------|
E|--------------------------------------------------------------------------|

e|5/7-7-7-7-7-7-7---------12----12----12-----------12----12----12-----------|
B|7/9-9-9-9-9-9-9---12h14----14----14----14--12h14----14----14----14--------|
G|--------------------------------------------------------------------------|
D|--------------------------------------------------------------------------|
A|--------------------------------------------------------------------------|
E|--------------------------------------------------------------------------|

e|------12--------12-----14-12----12----------------------------------------|
B|12h14----14--14----14--------14----14~------------------------------------|
G|--------------------------------------------------------------------------|
D|--------------------------------------------------------------------------|
A|--------------------------------------------------------------------------|
E|--------------------------------------------------------------------------|

"Solo Pt.2-Guitar 2"
e|--------------------------------------------------------------------------|
B|--------------------------------------------------------------------------|
G|--------------------------------------------------------------------------|
D|--------------------------------------------------------------------------|
A|2-2/4~-(Play until end of song)-------------------------------------------|
E|--------------------------------------------------------------------------|


************************************

| /   slide up
| \   slide down
| h   hammer-on
| p   pull-off
| ~   vibrato
| +   harmonic
| x   Mute note
| b   Bend
| pb  Pre-bend
| br  Bend release
| pbr Pre-bend release
| brb Bend release bend

************************************
Suggest correction new What's this?
You can suggest a correction to this tab. Community and Mods will review your correction and vote to approve or reject it.
comments
print report bad tab
guest
You may want to rate the tab now too:
select rating
Please do not post tabs as comments. Select "correction" instead!