Oops, an error
Loading. Please wait.

Psycho Killer Bass

2,733 views 12 this week
no commentswrite comment
1 2 3 4 5
x 3
add to favorites
×
Save as Personal and add changes to this tab that will be seen only by you. Learn more ›
×
You can save this tab as Personal to edit and correct it or add notes. All changes will be seen only by you. Learn more »
save as personal
new!
launch autoscroll
font size
0
reset
guitar tuner
Autoscroll
slow
fast
+/-
esc
set tempo
stop
Author
Difficulty
intermediate
About this tab version
What I play along with the song, sounds good to me. Was this info helpful? Yes No
"Psycho killer" by Talking Heads
-----------------------------------

Intro & Verse:

G ---------------------------------|
D ---------------------------------|
A ---------------------------------|
E -5---5---5---5---5---5---5-0-3---|

Chorus:

G ---------------------------------|  \
D -3-------3-------5-------5-------|   \
A -----5-3-----5-3-----7-5-----7-5-|    \
E ---------------------------------|    \
                                                   |
G ---------------------------------|    |
D ---------------------------------|    |
A ---------------------------------|    /
E -5---5-3-5---5-3-5---5-3-5---5---|   | 
                                      
G ---------------------------------|   | 
D -3-3------3-3-----5-5---5-5-----|    
A -----5-3-----5-3-----7-5-----7-5-|   
E ---------------------------------|    | 
                                                   |
G ---------------------------------|    /
D ---------------------------------|   /
A -3---3-2-3---3-2-3---3-2-3---3---|  /
E ---------------------------------| /

Bridge:

G ---------------------------------|   \
D -4---2---0-----------------------|    |
A -------------4---2---0---2---4---|    |
E ---------------------------------|   /
                                                  
G ---------------------------------|   \
D -5---4---2---0---5---4---2---0---|    |
A ---------------------------------|    |
E ---------------------------------|   /

G ---------------------------------|
D -----4-2-0-----4-2-0-------------|
A -----------0---------0-----------|
E ---------------------------------|

G -----4-2-0-----4-2-0-------------|
D -----------0---------0-----------|
A ---------------------------------|
E ---------------------------------|

Ending

G ---------------------------------|
D -----7-------7-------7-------7---| etc.
A -7-------7-------7-------7-------| etc.
E ---5---5---5---5---5---5---5---5-|

THE END.
Suggest correction
Give kudos to tab author, rate the tab!
1 2 3 4 5
comments
print report bad tab
guest
You may want to rate the tab now too:
select rating
Wanna post a correction for this tab? Suggest correction