Oops, an error
Loading. Please wait.

Right Before My Eyes Tab

2,957 views 21 this week
1 commentread comment
1 2 3 4 5
accurate
x 4
add to favorites
launch autoscroll
font size
0
reset
how to read this tab
guitar tuner
Autoscroll
slow
fast
+/-
esc
set tempo
stop
Help us to improve Ultimate-Guitar.com Take our survey!
×
Author
#----------------------------------PLEASE NOTE--------------------------------#
#This file is the author's own work and represents their interpretation of the#
#song. You may only use this file for private study, scholarship, or research.#
#-----------------------------------------------------------------------------#
#-- File created with Instab - http://www.pconline.com/~smcarey/instab.html --#
#-----------------------------------------------------------------------------#

Author/Artist: Cage The Elephant
Title: Right Before My Eyes

P Pluck
P.M. Palm Mute
A Arpeggio

Strum at 22nd fret.


Tuning (eb A D G B E),  Down ~ 10%,  (eb, D) Down ~ 10%
Live Standard Tuning,  Down ~ 10%
Key: (D + C#)



----|---------|-1------------------|
----|---------|-2------------------|
----|---------|--------------------|
----|-12/15---|--------------------|
----|---------|-16---15---13---11--|
----|---------|-17---14---14---12--|
       

  Intro/Verse 



----|----------------------|
----|-6----4---------------|
----|-6----5---6---6---5---|
----|-6----6---8---8---6---|
----|-8----6---8---9---6---|
----|----------------------|
        

  Chorus Arpeggios




----|---------------|--|-----------|--|
----|-2-------------|--|-4---------|--|
----|-x-------------|--|-x---------|--|
----|-4------8------|--|-6-----8---|--|
----|-4------8------|--|-6-----8---|--|
----|---------------|--|-----------|--|
        

  Bridge Arpeggios




----|--------------------------|--|-------|
----|--------------------------|--|--4----|
----|--------------------------|--|--x----|
----|--------------------------|--|--6----|
----|-11----6----8----4----6---|--|--6----|
----|-10----5----7----3----5---|--|-------|
       

  Outro Chorus                       A
Suggest correction
comments
print report bad tab
1 comment total.
+1 reply
Verse#2 10 wrote on August 2 2016, 03:19 pm

Tabs way off, incomplete and do not represent any timing.

guest
You may want to rate the tab now too:
select rating
Please do not post tabs as comments. Select "correction" instead!