Oops, an error
Loading. Please wait.

Sabertooth Tiger Tab

3,252 views 6 this week
1 commentread comment
1 2 3 4 5
x 3
add to favorites
launch autoscroll
font size
0
reset
how to read this tab
guitar tuner
Autoscroll
slow
fast
+/-
esc
set tempo
stop
Help us to improve Ultimate-Guitar.com Take our survey!
×
Author
Difficulty
novice
(Bass Intro)

Verse:
|-----------------------------------------------------------------------------|
|-----------------------------------------------------------------------------|
|-10   --9   -----------------------------------------------------------------|
|-10 x4--9 x4--9   --8   --7   -----------------------------------------------|
|- 8   --7   --9 x4--8 x2--7 x2-----------------------------------------------|
|--------------7   --6   --5   -----------------------------------------------|
(Play this 8 times)

Chorus:
|-----------------------------------------------------------------------------|
|-----------------------------------------------------------------------------|
|-----------------------------------------------------------------------------|
|-7    --6    --7    --10    -------------------------------------------------|
|-7 x16--6 x16--7 x16--10 x16-------------------------------------------------|
|-5    --4    --5    -- 8    -------------------------------------------------|
(Play this twice)

(Repeat Verse and Chorus)

(Then there is a lead and bass fill)

Bridge:
|-----------------------------------------------------------------------------|
|-----------------------------------------------------------------------------|
|-----------------------------------------------------------------------------|
|-7-7-7-7-7-7---7    --7-7-7-7-7-7---7    --7~~~------------------------------|
|-7-7-7-7-7-7---7 x16--7-7-7-7-7-7---7 x15--7~~~------------------------------|
|-5-5-5-5-5-5---5    --5-5-5-5-5-5---5    --5~~~------------------------------|
(I think there are some cancellations^^^^^here)

(A big pause then...)

"He's a Sabertooth..."

"...Tiger!"
|-----------------------------------------------------------------------------|
|-----------------------------------------------------------------------------|
|-----------------------------------------------------------------------------|
|---7     --------------------------------------------------------------------|
|---7 x128--------------------------------------------------------------------|
|---5     --------------------------------------------------------------------|
(I made it 128 but that sounds a little TOO high, if you make it something
different please feel free to tell me; my e-mail is at the bottom of here)

(Play Chorus twice)

End on:
|-----------|
|-----------|
|-----------|
|-7~~~~~----|
|-7~~~~~----|
|-5~~~~~----|

--------------------------------------------------------------------------------------
--------------------------------------------------------------------------------------
e-mail:scancode@hotamil.co.uk

This is my second tab, so if there any suggestions for this tab feel free to tell me
Suggest correction
Give kudos to tab author, rate the tab!
1 2 3 4 5
comments
print report bad tab
1 comment total.
+2 reply
NINJAGREGG 10 May 08, 2012 06:17 PM

I think the part after the pause goes like this:

|-------------------------------
|-------------------------------
|-----------7b8-----------------
|--7-7-7-7-------7-7-7-7----5h6-
|--7-7-7-7-------7-7-7-7--------
|--5-5-5-5-------5-5-5-5--------

I think like 4 times

guest
You may want to rate the tab now too:
select rating
Wanna post a correction for this tab? Suggest correction