Oops, an error
Loading. Please wait.

Sell Yourself Tab

version 2
version 2

Whole song

167 views 3 this week
no commentswrite comment
1 2 3 4 5
please rate
add to favorites
launch autoscroll
font size
0
reset
how to read this tab
guitar tuner
Tab Pro tools
  • play this tab
  • loop segment
  • change instrument
  • show fretboard
  • metronome
Autoscroll
slow
fast
+/-
esc
set tempo
stop
Contributor
#----------------------------------PLEASE NOTE--------------------------------#
#This file is the author's own work and represents their interpretation of the#
#song. You may only use this file for private study, scholarship, or research.#
#-----------------------------------------------------------------------------#
#-- File created with Instab - http://www.pconline.com/~smcarey/instab.html --#
#-----------------------------------------------------------------------------#

Author/Artist: Cage The Elephant
Title: Sell Yourself

B bend
R release bend

/ slide up
\ slide down
m Mute


Tuning (eb A D G B E), (eb , D) Down ~ 10%
Live Standard Tuning
Key: (E + D) -> (E + A) or (D + C#)

----|------------------------------------------|-------------|--|
----|------------------------------------------|-------------|--|
----|------------------------------------------|-------------|--|
----|------------------------------------------|-------------|--|
----|-------------18-18-18-18------------------|-------------|--|
----|-19-19-20-20-------------18-18-18-18-18---|-20-18-19-18-|--|
  

  Intro                                           Fuzzy



----|---------|--|
----|---------|--|
----|---------|--|
----|---------|--|
----|-2-2-2-2-|--|
----|---------|--|
  

  Verse Pt.1




----|------------------------------------------------------------------------|
----|------------------------------------------------------------------------|
----|------------------------------------------------------------------------|
----|-------------------------9----------------------------------------------|
----|-2-2-2-2-2-10--2-2-2-2-2-10---2-2-2-2-2-10--2-2-2-2-2-10--2-2-2-2-2-10--|
----|------------------------------------------------------------------------|
  

  Verse Pt.2                   P


---------------------------------------------|
---------------------------------------------|
---------------------------------------------|
------------9--------------------------------|
--2-2-2-2-2-10--2-2-2-2-2-10-----------------|
------------------------------4-4-5-5-6-6-7--|
                                           m



----|----------------------------|--|
----|----------------------------|--|
----|----------------------------|--|
----|----------------------------|--|
----|----------------------------|--|
----|-8-7-6--6--6-6--4-4--4-5-6--|--|
 

  Chorus    m  m    m    m      m



----|-------------------------|--|--------------------|-----------------|
----|-------------------------|--|--------------------|-8---8---8---9---|
----|-------------------------|--|--------------------|---7---7---7-----|
----|-------------------------|--|-------------19-21\-|-----------------|
----|-14-15-14-15-14-15-14-15-|--|-14-15-14-15--------|-----------------|
----|-------------------------|--|--------------------|-----------------|
  

  Interlude


----|--------|--------------------|--|----------------------------|
----|-8-b-r--|--------------------|--|----------------------------|
----|-7-b-r--|--------------------|--|----------------------------|
----|--------|--------------------|--|-17-17-18-18-19-19-20-21----|
----|--------|-18-----------------|--|----------------------------|
----|--------|----19-18--19br-18--|--|----------------------------|



----|----------------|--|------------|
----|----------------|--|------------|
----|----------------|--|------------|
----|----------------|--|------------|
----|----------------|--|------------|
----|-4-4-5-5-6-6-7--|--|-4-4-5-5-6--|
 

  Outro 
comments
We did not receive enough feedback on this tab! Please rate:
print report bad tab
1 2 3 4 5
I want to post or [tab]
guest
You may want to rate the tab now too:
select rating
Please do not post tabs as comments. Select "correction" instead!