Oops, an error
Loading. Please wait.

Shake Me Down Tab

version 4
version 4
1,289 views 3 this week
no commentswrite comment
1 2 3 4 5
not so good
x 1
add to favorites
launch autoscroll
font size
0
reset
how to read this tab
guitar tuner
Tab Pro tools
  • play this tab
  • loop segment
  • change instrument
  • show fretboard
  • metronome
Autoscroll
slow
fast
+/-
esc
set tempo
stop
Difficulty
novice
EDIT: got some stuff wrong while typing.

-note: I got these chords and notes from carefully watching the live version
 on the letterman show. check it out on youtube.  Also, I realized halfway
through making this tab that the studio version is half a step down on the
keys.  So if you want to play along to studio version or something just play
 everything one fret lower and you will have it.  This tab does not have the
correct strumming patterns or number of times you have to strum each chord
 due to my laziness, just the chords and notes that you need to know, So you
 will have to figure out the strumming patters and stuff by yourself... NOT
 THAT HARD.


for the intro, just hold the D Minor chord and keep switching from 2nd to 3rd fret
on the third string.
-start with the third fret on the third string though.
standard tuning
1-------1----------1--------------------------------------------|
2-----3--3-------3---3------------------------------------------|
3---3--------3-2------------------------------------------------|
4---------------------------------------------------------------|
5---------------------------------------------------------------|
6---------------------------------------------------------------|

the guitar part after that goes
1------6-------5--------3--------3------------------------------|
2----6---6---6---6----3---3----4---4----------------------------|
3--7-------7--------3--------5----------------------------------|
4---------------------------------------------------------------|
5---------------------------------------------------------------|
6---------------------------------------------------------------|

for the I KEEP MY... part after that, just keep strumming the F chord on 1st fret.

then the chords come in. play each one five times
1--6----5----3---8----------------------------------------------------|
2--6----6----3---8----------------------------------------------------|
3--7----7----3---9----------------------------------------------------|
4--8----7----5---10---------------------------------------------------|
5--8----5----5---10---------------------------------------------------|
6--6----5----3---8----------------------------------------------------|

then after he says i keep my eyes fixed on the sun or something
1---6--5--3--1---------------------------------------|
2---6--5--3--1---------------------------------------|
3---7--6--4--2---------------------------------------|
4---8--7--5--3---------------------------------------|
5---8--7--5--3---------------------------------------|
6---6--5--3--1---------------------------------------|

then the riff
1--6-6-6-6-------------------------------------|
2--6-6-6-6--13^---9^------8-^------------------|
3--6-6-6-6--16^---12^-----10^------------------|
4----------------------------------------------|
5----------------------------------------------|
6----------------------------------------------|

then
1---1---3---1----------------------|
2---1---3---3----------------------|
3---2---4---3----------------------|
4---3---5---3----------------------|
5---3---5---1----------------------|
6---1---3---1----------------------|

then the "even on a cloudy day" part
1---6--6--1--3----------------------------------|
2---8--6--1--3----------------------------------|
3---8--7--2--3----------------------------------|
4---8--8--3--5----------------------------------|
5---6--8--3--5----------------------------------|
6---6--6--1--3----------------------------------|

then the F chord again the the D minor chord to end it. thanks!
-moon!
comments
We did not receive enough feedback on this tab! Please rate:
print report bad tab
1 2 3 4 5
I want to post or [tab]
guest
You may want to rate the tab now too:
select rating
Please do not post tabs as comments. Select "correction" instead!