Oops, an error
Loading. Please wait.

Shake Me Down Tab

version 7
version 7
667 views 1 this week
no commentswrite comment
1 2 3 4 5
3 more votes to show rating
add to favorites
launch autoscroll
font size
0
reset
how to read this tab
guitar tuner
Autoscroll
slow
fast
+/-
esc
set tempo
stop
Help us to improve Ultimate-Guitar.com Take our survey!
×
Author
#----------------------------------PLEASE NOTE--------------------------------#
#This file is the author's own work and represents their interpretation of the#
#song. You may only use this file for private study, scholarship, or research.#
#-----------------------------------------------------------------------------#
#-- File created with Instab - http://www.pconline.com/~smcarey/instab.html --#
#-----------------------------------------------------------------------------#

Author/Artist: Cage The Elephant
Title: Shake Me Down

h hammer on
\ slide down


Tuning (eb A D G B E), Down 10%, (eb, D) Down ~ 20%
Live Standard Tuning, Down ~ 10%
Key: (B + G#), Mode B


----|-------|---0---------0---------0---------0----------|--|
----|-------|--------------------------------------------|--|
----|-------|--------------------------------------------|--|
----|-------|--------------------------------------------|--|
----|-11h12-|-12--12-12-11--11-11-12--12-12-11--11-11h12-|--|
----|-------|--------------------------------------------|--|
  

  Verse G1                                                                            



----|-------|--------------------------------------------|--|
----|-------|--------------------------------------------|--|
----|-9/11--|--------9-\6------9-/11-----9-\6------9/11--|--|
----|-9/11--|--------7-\4------9-/11-----7-\4------9/11--|--|
----|-------|--------------------------------------------|--|
----|-------|--------------------------------------------|--|
 

  Verse G2                                                                             




----|-----5-------4-------2-------2---|--|---|
----|---2---2---2---2---2---2---3---3-|--|---|
----|---------------------------------|--|-9-|
----|-7-------7-------7-------9-------|--|-9-|
----|---------------------------------|--|-7-|
----|---------------------------------|--|-x-|
                                                                              

  Verse Pt.2



----|--------------------------------------------------|--|-17--17---|--|-14--14---|
----|--------------------------------------------------|--|-14--14---|--|-14--14---|
----|--------------------------------------------------|--|----------|--|----------|
----|--------------------------------------------------|--|----------|--|----------|
----|--------------------------------------------------|--|----------|--|----------|
----|-6-6-6-6-6--10-10-10-10-10--3-3-3-3-3--8-8-8-8-8--|--|----------|--|----------|
    

  Verse 2                                                   G1            End



----|-----------------------|
----|-----------------------|
----|-----------------------|
----|-----------------------|
----|------------------7----|
----|-13---12----10----8----|
   

  Bridge



----|-----------9\--4---|--|-----------------|
----|-----------x---x---|--|-----------------|
----|-----------x---x---|--|-----------------|
----|-----------11--11--|--|-----------------|
----|-------------------|--|-----------------|
----|-13-13-13----------|--|-1010101010101010|
  

  Interlude 



----|-------------------------------------|
----|-------------------------------------|
----|-------------------------------------|
----|-------------------------------------|
----|-----------------------------7-------|
----|-8------------10---------------------|
   

  Bridge 2 Chords  "Walk around..corner...never"




----|-------------------------------------------------------------------------|
----|-17----------------------------------17----------------------------------|
----|-14---------------------------14-----14----------------------------------|
----|------------------------------14-----------------------------------------|
----|-------------------------------------------------------------------------|
----|----------17------12--------------------------17------12121212-14141414--|
     

      "Even on..day     even on a..day    even on a..      even......day



----|----------------------------------|--|---------------------------------|--|
----|----------------------------------|--|---------------------------------|--|
----|----------------------------------|--|---------------------------------|--|
----|----------------------------------|--|---------------------------------|--|
----|----------------------------------|--|---------------------------------|--|
----|-6---------13-------8--------10---|--|-8-------------------------------|--|
     

     "Even on...day      even.....day.      "I keep my eyes fix on the....."

Suggest correction
Give kudos to tab author, rate the tab!
1 2 3 4 5
comments
print report bad tab
guest
You may want to rate the tab now too:
select rating
Wanna post a correction for this tab? Suggest correction