Oops, an error
Loading. Please wait.

Soil To The Sun Tab

8,924 views 12 this week
no commentswrite comment
1 2 3 4 5
x 10
add to favorites
launch autoscroll
font size
0
reset
how to read this tab
guitar tuner
Autoscroll
slow
fast
+/-
esc
set tempo
stop
Help us to improve Ultimate-Guitar.com Take our survey!
×
Author
Difficulty
intermediate
Intro

|---------------------------|                  |--------|
|-10--10--10--10--10--10----|                  |--10\---|
|-12b-12b-12b-12b-12r-10-12-|  X4 and ends in  |--10\---|
|---------------------------|                  |--------|
|---------------------------|                  |--------|
|---------------------------|                  |--------|
|                           |
|                           |
|---------------------------|
|---------------------------|
|--7--7--7--7--7--7--7--7---|
|--7--7--7--7--7--7--7--7---|
|--5--5--5--5--5--5--5--5---|
|---------------------------|

Verse

|-----------------------------------------------|
|-5~----------5~----------5~--------------------|
|-5~-------7--5~-------7--5~-------7--7-7--5-5--|  X2    guitar 1 and 2
|----7-5-7-7-----7-5-7-7-----7-5-7-7--7-7--5-5--|        play together
|-------------------------------------5-5--3-3--|
|-----------------------------------------------|


|-----------------------------------------------|
|-5~----------5~----------5~--------------------|
|-5~-------7--5~-------7--5~-------7--7-7--5-5--|   
|----7-5-7-7-----7-5-7-7-----7-5-7-7--7-7--5-5--|        
|-------------------------------------5-5--3-3--|
|-----------------------------------------------|
|                                               |    X2
|                                               |
|-----------------------------------------------|
|-5~~~~~~~~~~~~~~~~~~~~~~~~~~~~~~~~~------------|
|-5~~~~~~~~~~~~~~~~~~~~~~~~~~~~~~~~~--7-7--5-5--|
|-------------------------------------7-7--5-5--|
|-------------------------------------5-5--3-3--|
|-----------------------------------------------|

Pre-chorus

|---------------------------------|
|---------------------------------|
|-2-2-2-2-2-2-2-2-5-5-5-5-7-7-7-7-|  X4
|-2-2-2-2-2-2-2-2-5-5-5-5-7-7-7-7-|
|-0-0-0-0-0-0-0-0-3-3-3-3-5-5-5-5-|
|---------------------------------|
|                                 |
|                                 |
|---------------------------------|     |---------------------------------|
|---------------------------------|     |---------------------------------|
|---------------------------------|     |---------------------------------|
|-7-7-7-7-7-7-7-7-101010109-9-9-9-|then |-7-7-7-7-7-7-7-7-1010101012121212|
|---------------------------------|     |---------------------------------| 
|-5-5-5-5-5-5-5-5-8-8-8-8-7-7-7-7-|     |-5-5-5-5-5-5-5-5-8-8-8-8-10101010|

Chorus

|----------------10-10-10\-|
|----------------13-13-13\-|
|--------------------------|
|-5-7--5-7--5-7------------|  
|-5-7--5-7--5-7------------|
|-3-5--3-5--3-5------------|
|                          |  X4
|                          |
|--------------------------|
|--------------------------|
|-5-6--5-6--5-6--9--9--9b--|
|-5-7--5-7--5-7--10-10-10b-|
|--------------------------|
|--------------------------|

Back to intro

Solo

|--------------------------------------------------------------------|
|-15b-15b-15b-15b-15b-15b-15b-15b-15b-15hb-15hb-15hb-15hb-15rb-------|
|--------------------------------------------------------------14----|
|--------------------------------------------------------------------|
|-----------------------------------------------------------------12-|
|--------------------------------------------------------------------|
|
|
|---------------------------|
|---------------------------|
|-xx66xxxx66xxxx66xx66x66x6-|repeat throughout the solo
|-xx77xxxx77xxxx77xx77x77x7-|
|-xx77xxxx77xxxx77xx77x77x7-|
|-xx55xxxx55xxxx55xx57x55x5-|


|---------------------------------------------------------------|
|-------------------------------------------12b-12b-12b-12b-----|
|-------------------------------------12-14-----------------14\-|
|-------12-14b-14b-14b-12-----14p12-----------------------------|
|-12-15-------------------14~------14---------------------------|
|---------------------------------------------------------------|

|--------------------------------|
|----------------------------10--|
|-----7-9-9-9--------7-9-9-10----|
|-7-10--------7--7-10------------| 
|--------------------------------|
|--------------------------------|


thats about it

any comments at thedoorsadio@hotmail.com
Suggest correction
comments
print report bad tab
guest
You may want to rate the tab now too:
select rating
Wanna post a correction for this tab? Suggest correction