Oops, an error
Loading. Please wait.

Tiny Little Robots Tab

version 2
version 2

Whole song

Interactive

2,950 views 3 this week
no commentswrite comment
1 2 3 4 5
excellent!
x 3
add to favorites
launch autoscroll
font size
0
reset
how to read this tab
guitar tuner
Autoscroll
slow
fast
+/-
esc
set tempo
stop
Help us to improve Ultimate-Guitar.com Take our survey!
×
Author
    +---------------------+
    |  tiny little robots |
    |  Cage The Elephant  |
    +---------------------+


this is all pretty much powerchords. (my favorite!)

x-deaden
/ or \-slide
h-hammer on
p-pull off
~-vibrato
  
verse

e|------------------------------------|
B|------------------------------------|
G|-9-9-(x)-12-12-(x)-7-7-(x)----------|
D|-9-9-(x)-12-12-(x)-7-7-(x)-7-7-7-7--|
A|-7-7-(x)-10-10-(x)-5-5-(x)-7-7-7-7--|
E|---------------------------5-5-5-5--|

Pre-Chorus

e|-----------------------------------------------------|
B|-----------------------------------------------------|
G|-9-9-9-9-9-7--9-9-9-9-9-7--9-9-9-9-9-7--9-9-9-9-9-7--|
D|-9-9-9-9-9-7--9-9-9-9-9-7--9-9-9-9-9-7--9-9-9-9-9-7--|
A|-7-7-7-7-7-5--7-7-7-7-7-5--7-7-7-7-7-5--7-7-7-7-7-5--|
E|-----------------------------------------------------|

e|-----------------------------------------------------|
B|-----------------------------------------------------|
G|-----------------------------------------------------|
D|-7-7-7-7-7-5--7-7-7-7-7-5--7-7-7-7-7-5--7-7-7-7-7-5--|
A|-7-7-7-7-7-5--7-7-7-7-7-5--7-7-7-7-7-5--7-7-7-7-7-5--|
E|-5-5-5-5-5-3--5-5-5-5-5-3--5-5-5-5-5-3--5-5-5-5-5-3--| play pre-chorus x2

Chorus
             are you scared?
e|-------------------------|
B|-------------------------|
G|-5-5-5-5-5-5-7-7-7-7-7---| x4
D|-5-5-5-5-5-5-7-7-7-7-7---|
A|-3-3-3-3-3-3-5-5-5-5-5---|
E|-------------------------|

Breakdown

e|-----------------------------------------------------------------|
B|-----------------------------------------------------------------|
G|-----------------------------------------------------------------|
D|-2---------------9-7-9----9-7-9----9-7-9-------------------------|
A|-2-------------7--------7--------7--------10-10-10--9h10p9----7--|
E|-0----3s5---3----------------------------------------------10----|

Solo

e|------------------------------------------|
B|-----------10/12---12\10-10--------12-10--|
G|-------------------------------9----------|
D|-7-7/9\7----------------------------------|
A|------------------------------------------|
E|------------------------------------------|

e|-------------------------------------------------------------------------|
B|-12-----------12-------12--------12--------12----------12-------12-------|
G|----12----------12--------12--------12--------12----------12-------12----|
D|-------14-12-------14--------14--------12--------14-12-------14-------14-|
A|-------------------------------------------------------------------------|
E|-------------------------------------------------------------------------|

e|-------------------------------------------------------------------|
B|-------15-------15-------15----------------------------------------|
G|-14h16----14h16----14h16----14-------------------------------------|
D|-------------------------------------------------------------------|
A|--------------------------------14--14-14-14-12---14--14-14-14-12--|
E|-------------------------------------------------------------------|

e|------------------------------------------15-------(15)------------------|
B|------------------------------------17-17----17-17-----17-17~-17~-17~-17~|
G|16--16-16-16\14---16--16-16-16\14----------------------------------------|
D|-------------------------------------------------------------------------|
A|-------------------------------------------------------------------------|
E|-------------------------------------------------------------------------|

1) verse
2) pre-chorus
3) chorus
4) verse
5) pre-chorus
6) chorus
7) break down
8) solo

Lyrics:

When you get fired up
When you get fired up
 
they gotcha movin' to the city
Oh my you think you're lookin' pretty
But they've got a pistol too
Tucked down beneath their shoe
 
It's a new sensation world annihilation
Movin' to the music patiently it's waitin'
The city's screamin' i can hear them breathin'
Cryin' out for wisdom hungry minds are feedin'
 
And i know that you're tired of this
'cause you're a robot they designed your life
True souls said you know what's right
And you can join us on the other side
 
CHORUS
Are you scared?
Are you scared?
Are you scared?
 
I've got you marchin' to a drum beat
Oh my you got another nose bleed
They'll keep you so amused
You'll never taste the truth
 
It's a new creation total domination
Chains across your shoulders social captivation
Kill our leaders persecute our teachers
Criticize our culture crucify free thinkers
 
I know that you're tired of this
'cause you're a robot they designed your life
But true souls said you know what's right
And you can join us on the other side
 
CHORUS
Are you scared?
Are you scared?
Are you scared?
(scream) ARE YOU?
 
Fill our eyes with money vanity that's cunnin'
Only on the surface diamonds look so stunnin'
Mass deception altered our perception
Sold it to the children made a new connection
 
And i know that you're tired of this
'cause you're a robot they designed your life
But true souls said you know what's right
And you can join us on the other side



Hope u guys like this, lyrics credit to http://www.kovideo.net/

feel free to post an insult, congrats, or a correction on the comments for better use of this tab
Suggest correction
Give kudos to tab author, rate the tab!
1 2 3 4 5
comments
print report bad tab
guest
You may want to rate the tab now too:
select rating
Please do not post tabs as comments. Select "correction" instead!