Oops, an error
Loading. Please wait.

Trouble chords

version 3
version 3

Whole song

Interactive

3,781 views 39 this week
1 commentread comment
1 2 3 4 5
x 5
add to favorites
×
Save as Personal and add changes to this tab that will be seen only by you. Learn more ›
×
You can save this tab as Personal to edit and correct it or add notes. All changes will be seen only by you. Learn more »
launch autoscroll
font size
0
reset
transpose
0
reset
simplify chords
display chords
guitar tuner
edit
Autoscroll
slow
fast
+/-
esc
set tempo
stop
Author
Difficulty
Strumming
There is no strumming pattern for this song yet. and get +5 IQ
Cage the Elephant
Trouble
Tell Me I'm Pretty


[Chords]
All unexclaimed chords are open unless stated otherwise

C/E x7555x  G# xx655x  C7 xx755x  F6 x877xx


[Intro]

e|---------------------------------------------------------------|
B|-----------5------------5-----------5--------------------------|
G|--------------5------5----5------------5------7p5-7p5-7p5-7p5--|
D|--------5---------6---------6h7--7--------5--------------------|
A|---/7----------------------------------------------------------|
E|---------------------------------------------------------------|


e|---------------------------------------------------|
B|--------5--------------5-----------5---------------|
G|-----------5--------5-----5-----------5------7/9---|
D|--------------5--6-----------6--7--------5---------|
A|---/7----------------------------------------------|
E|---------------------------------------------------|


(lead plays up an octave)
  C/E   G   C7   F6      
Ooooooooooooooooooooh



[Verse 1]

C/E          G#              C7           F6
We were at the table by the window, the view
C/E        G#         C7               F6
Casting shadows the sun was pushing through
C/E                 G#             
Spoke a lot of words
          C7                 F6
I dont know if I spoke the truth

[Pre-Chorus] (Power Chords)

Am            G F
Got so much to lose
G Am            G F
    Got so much to prove
G Am             G F             C/E  Em   
  God don't let me lose, my mind

[Chorus]

C/E               G#                  C7
Trouble on my left, trouble on my right
                   F6                  C/E                 
I've been facing trouble almost all my life
          G#                      C7
My sweet love won't you pull me through
               F6                      C/E 
Everywhere I look I catch a glimpse of you
               G#                  C7           F6
I said it was love and I did it for life, doo doo

C/E   G#   C7  F6
Ooooooooooooooh  (2x) 

[Verse 2]

C/E                 G#
When I come to pass
C7               F6
Will I pass the test
C/E                 G#
You know what they say yeah
     C7           F6     
The wicked get no rest
C/E               G#             C7        F6
You can have my heart and it plays anytime

[Pre-Chorus] (Power Chords)

Am            G F
Got so much to lose
G Am            G F
    Got so much to prove
G Am             G F             C/E  Em   
  God don't let me lose, my mind

[Chorus]

C/E               G#                  C7
Trouble on my left, trouble on my right
                   F6                  C/E                 
I've been facing trouble almost all my life
          G#                      C7
My sweet love won't you pull me through
               F6                      C/E 
Everywhere I look I catch a glimpse of you
               G#                  C7           F6
I said it was love and I did it for life, doo doo

C/E   G#   C7  F6
Ooooooooooooooh  (2x) 


[Bridge]

       C/E                                           C7                               C/E

e|------------------------------------|----------------------------|-----------------------------------|
B|------------------------------------|----------------------------|-----------------------------------|
G|-----------------/9---7-5-7--5------|----/9---7-5----------------|----/9---7-5-----------------------|
D|-----5----7-------------------------|--------------7-------------|-------------5---------------------|
A|------------------------------------|----------------------------|------------------9--10--9--10--9--|
E|------------------------------------|----------------------------|-----------------------------------|


[Chorus]

C/E               G#                  C7
Trouble on my left, trouble on my right
                   F6                  C/E                 
I've been facing trouble almost all my life
          G#                      C7
My sweet love won't you pull me through
               F6                      C/E 
Everywhere I look I catch a glimpse of you
               G#                  C7           F6
I said it was love and I did it for life, doo doo

C/E   G#   C7  F6
Ooooooooooooooh  (3x) 


[End]

C7              G#
Got so much to lose
C7              G#
Got so much to prove
C7              G#      F6   C7   G#   C/E  C   
God don't let me lose, my mind

            
            
Suggest correction
Creating personal tab
Creating personal tab
You can edit any tab online and save it as your Personal.

You can edit, replace or remove any tab part or add personal notes – all changes will be seen only by you.

Personal tabs can be accessed anytime from any device, even offline.
Learn more »
comments
print report bad tab
1 comment total.
0 reply
Sweezin 10 Oct 24, 2016 10:00 PM

Not a huge fan of this contribution

guest
You may want to rate the tab now too:
select rating
Wanna post a correction for this tab? Suggest correction