Oops, an error
Loading. Please wait.

No Dejes Que tab

version 2
version 2

Whole song

Interactive

37,176 views 42 this week
no commentswrite comment
1 2 3 4 5
x 6
add to favorites
×
Save as Personal and add changes to this tab that will be seen only by you. Learn more ›
×
You can save this tab as Personal to edit and correct it or add notes. All changes will be seen only by you. Learn more »
launch autoscroll
font size
0
reset
how to read this tab
guitar tuner
backing track
0:00
0:00
edit
Autoscroll
slow
fast
+/-
esc
set tempo
stop
Author
Difficulty
Unregistered
intermediate
[Intro]
   D         G     A      D              G         A
e|------------------------------------------------------------------14------|
B|-5/7-7-5---8-------------7/5-5/7--5----7/5--8---10--12--14-14-12----15----|
G|---------7---6-7-6------------------7------7---------------------14-------|
D|-0-----------------9-7-7--------------------------------------------------|
A|--------------------------------------------------------------------------|
E|--------------------------------------------------------------------------|

[Verse]
D                  G       A
  Cuando veo a traves del vaso,
D          G         A
  Veo a traves del tiempo;
F#m             G           A
  Donde los sentidos se dislocan,
F#m            G            A
  Donde los temores se evaporan.

D               G        A
  Y aprovecho para desdoblarme...

F        C      G
  Y no se por que
F          C               G
  No me importa saber por que.
chorus
G
No dejes que
              Am
Nos coma el diablo, amor,
              Bm
Que se trague tu calor,
          C
Que eructe mi dolor.

 (after the chorus)
e|------10----------------|
B|-5/7----10---7--5-------| then the verse
G|------------------7-----|
D|------------------------|
A|------------------------|
E|------------------------|

 [Solo]
e|E-----10--------------10-12-12/14-^14-14-14/12-12-12/10-10-10/9-9--9--9/-7-7-|
B|-5/7---10-7-5------10-----------------------------------------10-10-10/-9-9-|
G|-------------7-7/11---------------------------------------------------------|
D|----------------------------------------------------------------------------|
A|----------------------------------------------------------------------------|
E|----------------------------------------------------------------------------|

e|E-7------------------------------------------------------------7-7-7/-9--9--|
B|-9/8-8~7~5~7-7/5-7--7-7-5-5-5---------------------------------8-8-8/10-10--|
G|----------------7---7-7-6-6-6---6---6---6-7-6-------9-9-6-7-7--------------|
D|-------------------------------7-9-7-9-7-----7/4--4/-----------------------|
A|---------------------------------------------------------------------------|
E|---------------------------------------------------------------------------|

e|E--9/7-7-7/5-5-5/3-3-3-----9---9---9--------------------10----------------12|
B|-10/8-8-8/7-7-7/5-5-5---10---10--10-----------------------------------------|
G|---------------------5/11---11--11--11-11-11-11/12-12-12-12-12-12/14-14-14--|
D|----------------------------------------------------------------------------|
A|----------------------------------------------------------------------------|
E|----------------------------------------------------------------------------|

[Verse]
D                 G        A
  Cuando veo a traves del humo...
F
  Y no se por que...

[Chorus]
G
  No dejes que...
Suggest correction
Creating personal tab
Creating personal tab
You can edit any tab online and save it as your Personal.

You can edit, replace or remove any tab part or add personal notes – all changes will be seen only by you.

Personal tabs can be accessed anytime from any device, even offline.
Learn more »
comments
print report bad tab
guest
Wanna post a correction for this tab? Suggest correction