Oops, an error
Loading. Please wait.

Amylase tab

version 1
version 1

Whole song

Interactive

6,066 views 1 this week
2 commentsread comments
1 2 3 4 5
x 4
add to favorites
×
Save as Personal and add changes to this tab that will be seen only by you. Learn more ›
×
You can save this tab as Personal to edit and correct it or add notes. All changes will be seen only by you. Learn more »
launch autoscroll
font size
0
reset
how to read this tab
guitar tuner
edit
Autoscroll
slow
fast
+/-
esc
set tempo
stop
Author
Difficulty
-------------------------------------------------------------------------------
                             AMYLASE - Cajun Dance Party
-------------------------------------------------------------------------------
Tabbed by: Ollie Milton
Email: whatareyoucrips@hotmail.co.uk

Tuning: Standard (EADGBe)



INTRO: Am C F

Keyboard part arr. for guitar:

B|10-8---10-8-----------||
G|-----9------9-10-9----||
D|-------------------10-||

VERSE: Am C F

CHORUS: F G G# A

e|--------------|
B|10--12--12-13-|
G|--------------|
D|--------------|
A|8---10--11-12-|
E|--------------|

BRIDGE: Bb G 

e|-------------------------------------|
B|3--------10 11 10--------------------|
G|5^-5-3------------10 10^(11)10-------|
D|-------5-----------------------10 12-|
A|-------------------------------------|
E|-------------------------------------|

e|------------------8------------------|
B|3--------10 11 10---11 10------------|
G|5^ 5 3--------------------10^(11)10--|
D|-------5-----------------------------|                      
A|-------------------------------------|
E|-------------------------------------|

NOT SURE ON THIS PART: (IMPROVISE)
e|------------------10-------------------|
B|---------------11----11----------------|
G|10 12 10 10 12----------12 10 12-------|
D|---------------------------------10 12-|
A|---------------------------------------|
E|---------------------------------------|

e|------------------|
B|3-----------------|
G|5^-5-3-------3-5--|      
D|-------5-3-5------|                      
A|------------------|
E|------------------|

SOLO

e|--------------------------------------------|
B|13^(15)13p11----11----13^(15)13p11----11-13-|
G|-------------12----12--------------12-------|   x4
D|--------------------------------------------|
A|--------------------------------------------|
E|--------------------------------------------|

e|----------------13 10--|
B|13^(15)13p11-----------|      x2
G|-------------12--------|                  
D|-----------------------|
A|-----------------------|
E|-----------------------|


e|----------------13 10 13 15--------------|
B|13^(15)13p11----------------13^(15)13p11-|
G|-------------12--------------------------|
D|-----------------------------------------|      
A|-----------------------------------------| 
E|-----------------------------------------| 

e|--------------------------------------------|
B|13^(15)13p11----11----13^(15)13p11----11-13-|
G|-------------12----12--------------12-------|         
D|--------------------------------------------|       
A|--------------------------------------------| 
E|--------------------------------------------|

e|------------------------------------------------------|
B|13^(15)13p11----11----13^(15)13p11----11--------------| 
G|-------------12----12--------------12-----7-7^(8)p7---|    
D|----------------------------------------------------8-|
A|------------------------------------------------------|
E|------------------------------------------------------|

BRIDGE: Bb Dm D#

Chorus Riff before outro solo which is something like:

e|-------------------|
B|10---5---3---------|
G|12^--7^--5^-5-3----|
D|----------------/5-|
A|-------------------|
E|-------------------|


            
            
Suggest correction
Creating personal tab
Creating personal tab
You can edit any tab online and save it as your Personal.

You can edit, replace or remove any tab part or add personal notes – all changes will be seen only by you.

Personal tabs can be accessed anytime from any device, even offline.
Learn more »
comments
print report bad tab
2 comments total.
0 reply
joni_xz 30 Jan 11, 2009 11:53 AM

my god i love you for that solo!

0 reply
Lucky1Man 10 Mar 09, 2009 03:25 PM

I think that everything is perfect apart from the little outro bit..

e-------------------------------
b--10--10----5--5---5-----------
g--13^-13^---8^-8^--8^--5--3----
d----------------------------5--
a-------------------------------
e-------------------------------

I think its something like this, but I can't be wholly sure

guest
You may want to rate the tab now too:
select rating
Wanna post a correction for this tab? Suggest correction