Oops, an error
Loading. Please wait.

The Next Untouchable Bass Tab

version 1
version 1

Whole song

264 views 1 this week
no commentswrite comment
1 2 3 4 5
please rate
add to favorites
launch autoscroll
font size
0
reset
guitar tuner
Autoscroll
slow
fast
+/-
esc
set tempo
stop
Help us to improve Ultimate-Guitar.com Take our survey!
×
Difficulty
intermediate
These are the basic bass rhythms for the whole song. Rhythm is easy to figure out.


G----------------------------------------------------------------------------|
D--------------------------------------------5--5-5-4-------5-5-4-4----------|
A-----------------------------5-7-9h10-------------------------------7-7-5-5-|
E-7--7-7--7-5-7--7-7--5-7-5-7--------3--3-3-----------3--3-3-----------------|



Repeat above, as that's the main bass for the most part.


G---------------------------------------------------|
D--------------------------------12-----------------|
A--5-5-5-5-7-7-7-7-9-9-9-9--12h14--14---------------|
E---------------------------------------------------|

Then play the midpart of the first tab.


G---------------------------------------------|
D--------5--5-5-4-------5-5-4-4---------------|
A-------------------------------7-7-5-5-------|
E--3-3-3----------3-3-3-----------------------|



And that just repeats. You can figure it out if you give it a listen.

This is the bridge that plays at 1:18

                  I can't walk away                All I can do is say
G------------------------------------------------------------------------|
D------------------------------------------------------------------------|
A--2-2-2-2-2-0-2---------------------------------------------------------|
E------------------------------------3-3-3-3-3-0-3-----------------------|

                Better luck next time               The next untouch -
G----------------------------------------------------------------------|
D----------------------------------------------------------------------|
A--2-2-2-2-2-0-2-------------------------------------------------------|
E-------------------------------------3-3-3-3-3-0-3--------------------|

                 The next untouch -
G--------------------------------------------------------|
D--------------------------------------------------------|
A--5-5-5-5-5-0-5-----------------------------------------|
E----------------------------------3-3-3-3-3-0-3---------|

                 The next untouch -
G--------------------------------------------------------|
D--------------------------------------------------------|
A--5-5-5-5-5-0-5-----------------------------------------|
E----------------------------------3-3-3-3-5-5-5---------|


1:40

          I can't walk away, all I can do is say!

G---------------------------------------------------------------------------|
D---------------------------------------------------------------------------|
A-------------5-7-9-9-9-9-9h10-10-9-9---------------5-7-9-9-9-9-9h10-10-9-9-|
E-7-7-7-7-7-7-------------------------5-7-7-7-7-7-7-------------------------|


1:53

G-------------------------------------------------------|
D-------------------------------------------------------|
A----5---5-7---7-9---9-10---10-9-9-9-9-9h10-10-9-9------|
E--7----------------------------------------------------|


2:37

G-------------------------------------------------------------------|
D------------------5-5-5-5-5-5-5-5-----------------5-5-4-4----------|
A----------------------------------------------------------7-7-5-5--|
E-3-3-3-3-3-3-3-3------------------3-3-3-3-3-3-3-3------------------|

And the rest of the song is some variation of these same tabs. Have fun!~
Suggest correction
Give kudos to tab author, rate the tab!
1 2 3 4 5
comments
print report bad tab
guest
You may want to rate the tab now too:
select rating
Please do not post tabs as comments. Select "correction" instead!