Oops, an error
Loading. Please wait.

The Next Untouchable Tab

version 1
version 1

Intro

4,470 views 1 this week
2 commentsread comments
1 2 3 4 5
3 more votes to show rating
add to favorites
launch autoscroll
font size
0
reset
how to read this tab
guitar tuner
Autoscroll
slow
fast
+/-
esc
set tempo
stop
Author
Difficulty
intermediate
First tab ever, sound almost exact.

Play with neckpickup and fuzzy distortion
Play this fast and it will sound quite similar to the intro/ rest of the song ( although 
are some variations)


Opening Chord:
e|-3-
B|-6-
G|-4-
D|-3-
A|-5-
E|-3-


e|--------------------------|
B|---------3----0---3-5bp3--|
G|----3h4----3--------------|
D|--------------------------|
A|--------------------------|
E|--------------------------|
Suggest correction
Give kudos to tab author, rate the tab!
1 2 3 4 5
comments
print report bad tab
2 comments total.
0 reply
.QOTSA. 10 Jun 11, 2009 05:59 AM

e|--------------------------|
B|------7-------------------|
G|--------------7--9bp7-----|
D|--8h9----8h9---------9----|
A|--------------------------|
E|--------------------------|

Thats how I used to play it, it sounds closer to me, but good job on tabbing this, I love this song and this seems to be the only tab.

0 reply
Thnks-4-Th-Mmrs 249 Nov 12, 2009 06:25 AM

Yeah, I play the same as QOTSA.

Close tho.

guest
You may want to rate the tab now too:
select rating
Wanna post a correction for this tab? Suggest correction